ISO-10303-21;
HEADER;
FILE_DESCRIPTION (( 'STEP AP203' ),
    '1' );
FILE_NAME ('Web Model 19837_19863.step',
    '2022-04-06T15:05:14',
    ( 'WC' ),
    ( 'Windows Central' ),
    'SwSTEP 2.0',
    'SolidWorks 2021',
    '' );
FILE_SCHEMA (( 'CONFIG_CONTROL_DESIGN' ));
ENDSEC;

DATA;
#1 =( NAMED_UNIT ( * ) SI_UNIT ( $, .STERADIAN. ) SOLID_ANGLE_UNIT ( ) );
#2 = APPROVAL_DATE_TIME ( #74, #76 ) ;
#3 = DIRECTION ( 'NONE',  ( 1.000000000000000000, 0.000000000000000000, 0.000000000000000000 ) ) ;
#4 = PERSON_AND_ORGANIZATION_ROLE ( 'creator' ) ;
#5 = SECURITY_CLASSIFICATION ( '', '', #55 ) ;
#6 = PERSON_AND_ORGANIZATION ( #153, #91 ) ;
#7 = EDGE_CURVE ( 'NONE', #127, #31, #123, .T. ) ;
#8 = CIRCLE ( 'NONE', #18, 12.50000000000000000 ) ;
#9 = PERSON_AND_ORGANIZATION_ROLE ( 'classification_officer' ) ;
#10 = DIRECTION ( 'NONE',  ( 1.000000000000000000, 0.000000000000000000, 0.000000000000000000 ) ) ;
#11 = AXIS2_PLACEMENT_3D ( 'NONE', #19, #150, #135 ) ;
#12 = CARTESIAN_POINT ( 'NONE',  ( 0.000000000000000000, 0.000000000000000000, 4.000000000000000000 ) ) ;
#13 = DIRECTION ( 'NONE',  ( 0.000000000000000000, 0.000000000000000000, 1.000000000000000000 ) ) ;
#14 = APPROVAL_PERSON_ORGANIZATION ( #107, #76, #35 ) ;
#15 = DIRECTION ( 'NONE',  ( 1.000000000000000000, 0.000000000000000000, -0.000000000000000000 ) ) ;
#16 = MECHANICAL_CONTEXT ( 'NONE', #133, 'mechanical' ) ;
#17 = CC_DESIGN_PERSON_AND_ORGANIZATION_ASSIGNMENT ( #148, #20, ( #147 ) ) ;
#18 = AXIS2_PLACEMENT_3D ( 'NONE', #22, #160, #3 ) ;
#19 = CARTESIAN_POINT ( 'NONE',  ( 0.000000000000000000, 0.000000000000000000, 0.000000000000000000 ) ) ;
#20 = PERSON_AND_ORGANIZATION_ROLE ( 'design_owner' ) ;
#21 = EDGE_CURVE ( 'NONE', #172, #127, #104, .T. ) ;
#22 = CARTESIAN_POINT ( 'NONE',  ( 0.000000000000000000, 0.000000000000000000, 4.000000000000000000 ) ) ;
#23 = AXIS2_PLACEMENT_3D ( 'NONE', #154, #13, #90 ) ;
#24 = PERSON_AND_ORGANIZATION ( #153, #91 ) ;
#25 = CALENDAR_DATE ( 2022, 6, 4 ) ;
#26 = LOCAL_TIME ( 11, 5, 14.00000000000000000, #54 ) ;
#27 = DIRECTION ( 'NONE',  ( 1.000000000000000000, 0.000000000000000000, 0.000000000000000000 ) ) ;
#28 = CC_DESIGN_DATE_AND_TIME_ASSIGNMENT ( #100, #66, ( #5 ) ) ;
#29 = CYLINDRICAL_SURFACE ( 'NONE', #156, 12.50000000000000000 ) ;
#30 = EDGE_CURVE ( 'NONE', #79, #172, #162, .T. ) ;
#31 = VERTEX_POINT ( 'NONE', #174 ) ;
#32 = DIRECTION ( 'NONE',  ( 0.000000000000000000, 0.000000000000000000, 1.000000000000000000 ) ) ;
#33 = APPROVAL_PERSON_ORGANIZATION ( #24, #166, #101 ) ;
#34 = CALENDAR_DATE ( 2022, 6, 4 ) ;
#35 = APPROVAL_ROLE ( '' ) ;
#36 = ADVANCED_FACE ( 'NONE', ( #78 ), #58, .T. ) ;
#37 = APPROVAL_DATE_TIME ( #67, #166 ) ;
#38 = AXIS2_PLACEMENT_3D ( 'NONE', #143, #60, #27 ) ;
#39 = SHAPE_DEFINITION_REPRESENTATION ( #62, #45 ) ;
#40 = CC_DESIGN_PERSON_AND_ORGANIZATION_ASSIGNMENT ( #122, #146, ( #173 ) ) ;
#41 = AXIS2_PLACEMENT_3D ( 'NONE', #105, #158, #103 ) ;
#42 = ORIENTED_EDGE ( 'NONE', *, *, #138, .T. ) ;
#43 = ORIENTED_EDGE ( 'NONE', *, *, #21, .T. ) ;
#44 = CC_DESIGN_PERSON_AND_ORGANIZATION_ASSIGNMENT ( #47, #4, ( #61 ) ) ;
#45 = ADVANCED_BREP_SHAPE_REPRESENTATION ( 'Web Model 19837_19863', ( #53, #11 ), #88 ) ;
#46 = ORIENTED_EDGE ( 'NONE', *, *, #149, .T. ) ;
#47 = PERSON_AND_ORGANIZATION ( #153, #91 ) ;
#48 = FACE_OUTER_BOUND ( 'NONE', #95, .T. ) ;
#49 = DIRECTION ( 'NONE',  ( -0.000000000000000000, -0.000000000000000000, -1.000000000000000000 ) ) ;
#50 = EDGE_CURVE ( 'NONE', #31, #127, #140, .T. ) ;
#51 = CARTESIAN_POINT ( 'NONE',  ( 12.50000000000000000, 1.530808498934191521E-15, 0.000000000000000000 ) ) ;
#52 = COORDINATED_UNIVERSAL_TIME_OFFSET ( 5, 0, .BEHIND. ) ;
#53 = MANIFOLD_SOLID_BREP ( 'Boss-Extrude1', #89 ) ;
#54 = COORDINATED_UNIVERSAL_TIME_OFFSET ( 5, 0, .BEHIND. ) ;
#55 = SECURITY_CLASSIFICATION_LEVEL ( 'unclassified' ) ;
#56 = CC_DESIGN_SECURITY_CLASSIFICATION ( #5, ( #173 ) ) ;
#57 = DESIGN_CONTEXT ( 'detailed design', #117, 'design' ) ;
#58 = PLANE ( 'NONE',  #41 ) ;
#59 = ORIENTED_EDGE ( 'NONE', *, *, #7, .T. ) ;
#60 = DIRECTION ( 'NONE',  ( 0.000000000000000000, 0.000000000000000000, 1.000000000000000000 ) ) ;
#61 = PRODUCT_DEFINITION ( 'UNKNOWN', '', #173, #57 ) ;
#62 = PRODUCT_DEFINITION_SHAPE ( 'NONE', 'NONE',  #61 ) ;
#63 = COORDINATED_UNIVERSAL_TIME_OFFSET ( 5, 0, .BEHIND. ) ;
#64 = CC_DESIGN_APPROVAL ( #76, ( #61 ) ) ;
#65 = APPROVAL_STATUS ( 'not_yet_approved' ) ;
#66 = DATE_TIME_ROLE ( 'classification_date' ) ;
#67 = DATE_AND_TIME ( #25, #26 ) ;
#68 = VECTOR ( 'NONE', #157, 1000.000000000000000 ) ;
#69 = DIRECTION ( 'NONE',  ( -0.000000000000000000, -0.000000000000000000, -1.000000000000000000 ) ) ;
#70 = ORIENTED_EDGE ( 'NONE', *, *, #149, .F. ) ;
#71 = CARTESIAN_POINT ( 'NONE',  ( -12.50000000000000000, 0.000000000000000000, 4.000000000000000000 ) ) ;
#72 = PERSON_AND_ORGANIZATION_ROLE ( 'creator' ) ;
#73 = DIRECTION ( 'NONE',  ( -0.000000000000000000, -0.000000000000000000, -1.000000000000000000 ) ) ;
#74 = DATE_AND_TIME ( #108, #130 ) ;
#75 =( NAMED_UNIT ( * ) PLANE_ANGLE_UNIT ( ) SI_UNIT ( $, .RADIAN. ) );
#76 = APPROVAL ( #111, 'UNSPECIFIED' ) ;
#77 = ADVANCED_FACE ( 'NONE', ( #81 ), #92, .F. ) ;
#78 = FACE_OUTER_BOUND ( 'NONE', #128, .T. ) ;
#79 = VERTEX_POINT ( 'NONE', #71 ) ;
#80 = LOCAL_TIME ( 11, 5, 14.00000000000000000, #52 ) ;
#81 = FACE_OUTER_BOUND ( 'NONE', #170, .T. ) ;
#82 = DATE_AND_TIME ( #34, #80 ) ;
#83 = PERSON_AND_ORGANIZATION ( #153, #91 ) ;
#84 = COORDINATED_UNIVERSAL_TIME_OFFSET ( 5, 0, .BEHIND. ) ;
#85 = AXIS2_PLACEMENT_3D ( 'NONE', #155, #32, #10 ) ;
#86 = CC_DESIGN_PERSON_AND_ORGANIZATION_ASSIGNMENT ( #83, #72, ( #173 ) ) ;
#87 = DATE_AND_TIME ( #98, #115 ) ;
#88 =( GEOMETRIC_REPRESENTATION_CONTEXT ( 3 ) GLOBAL_UNCERTAINTY_ASSIGNED_CONTEXT ( ( #114 ) ) GLOBAL_UNIT_ASSIGNED_CONTEXT ( ( #134, #75, #1 ) ) REPRESENTATION_CONTEXT ( 'NONE', 'WORKASPACE' ) );
#89 = CLOSED_SHELL ( 'NONE', ( #175, #118, #36, #77 ) ) ;
#90 = DIRECTION ( 'NONE',  ( 1.000000000000000000, 0.000000000000000000, 0.000000000000000000 ) ) ;
#91 = ORGANIZATION ( 'UNSPECIFIED', 'UNSPECIFIED', '' ) ;
#92 = PLANE ( 'NONE',  #163 ) ;
#93 = APPROVAL ( #65, 'UNSPECIFIED' ) ;
#94 = ORIENTED_EDGE ( 'NONE', *, *, #7, .F. ) ;
#95 = EDGE_LOOP ( 'NONE', ( #70, #43, #59, #119 ) ) ;
#96 = DIRECTION ( 'NONE',  ( 0.000000000000000000, 0.000000000000000000, 1.000000000000000000 ) ) ;
#97 = CC_DESIGN_DATE_AND_TIME_ASSIGNMENT ( #87, #136, ( #61 ) ) ;
#98 = CALENDAR_DATE ( 2022, 6, 4 ) ;
#99 = CARTESIAN_POINT ( 'NONE',  ( 0.000000000000000000, 0.000000000000000000, 4.000000000000000000 ) ) ;
#100 = DATE_AND_TIME ( #167, #113 ) ;
#101 = APPROVAL_ROLE ( '' ) ;
#102 = AXIS2_PLACEMENT_3D ( 'NONE', #99, #73, #144 ) ;
#103 = DIRECTION ( 'NONE',  ( 1.000000000000000000, 0.000000000000000000, -0.000000000000000000 ) ) ;
#104 = LINE ( 'NONE', #139, #68 ) ;
#105 = CARTESIAN_POINT ( 'NONE',  ( 0.000000000000000000, 0.000000000000000000, 4.000000000000000000 ) ) ;
#106 = DIRECTION ( 'NONE',  ( -1.000000000000000000, 0.000000000000000000, 0.000000000000000000 ) ) ;
#107 = PERSON_AND_ORGANIZATION ( #153, #91 ) ;
#108 = CALENDAR_DATE ( 2022, 6, 4 ) ;
#109 = CARTESIAN_POINT ( 'NONE',  ( -12.50000000000000000, 0.000000000000000000, 4.000000000000000000 ) ) ;
#110 = APPROVAL_PERSON_ORGANIZATION ( #6, #93, #165 ) ;
#111 = APPROVAL_STATUS ( 'not_yet_approved' ) ;
#112 = PERSON_AND_ORGANIZATION ( #153, #91 ) ;
#113 = LOCAL_TIME ( 11, 5, 14.00000000000000000, #152 ) ;
#114 = UNCERTAINTY_MEASURE_WITH_UNIT (LENGTH_MEASURE( 1.000000000000000082E-05 ), #134, 'distance_accuracy_value', 'NONE');
#115 = LOCAL_TIME ( 11, 5, 14.00000000000000000, #63 ) ;
#116 = ORIENTED_EDGE ( 'NONE', *, *, #21, .F. ) ;
#117 = APPLICATION_CONTEXT ( 'configuration controlled 3d designs of mechanical parts and assemblies' ) ;
#118 = ADVANCED_FACE ( 'NONE', ( #121 ), #29, .T. ) ;
#119 = ORIENTED_EDGE ( 'NONE', *, *, #138, .F. ) ;
#120 = ORIENTED_EDGE ( 'NONE', *, *, #50, .F. ) ;
#121 = FACE_OUTER_BOUND ( 'NONE', #171, .T. ) ;
#122 = PERSON_AND_ORGANIZATION ( #153, #91 ) ;
#123 = CIRCLE ( 'NONE', #23, 12.50000000000000000 ) ;
#124 = APPLICATION_PROTOCOL_DEFINITION ( 'international standard', 'config_control_design', 1994, #117 ) ;
#125 = CARTESIAN_POINT ( 'NONE',  ( 12.50000000000000000, 1.530808498934191521E-15, 4.000000000000000000 ) ) ;
#126 = CC_DESIGN_APPROVAL ( #166, ( #5 ) ) ;
#127 = VERTEX_POINT ( 'NONE', #51 ) ;
#128 = EDGE_LOOP ( 'NONE', ( #131, #46 ) ) ;
#129 = ORIENTED_EDGE ( 'NONE', *, *, #50, .T. ) ;
#130 = LOCAL_TIME ( 11, 5, 14.00000000000000000, #84 ) ;
#131 = ORIENTED_EDGE ( 'NONE', *, *, #30, .T. ) ;
#132 = APPROVAL_DATE_TIME ( #82, #93 ) ;
#133 = APPLICATION_CONTEXT ( 'configuration controlled 3d designs of mechanical parts and assemblies' ) ;
#134 =( LENGTH_UNIT ( ) NAMED_UNIT ( * ) SI_UNIT ( .MILLI., .METRE. ) );
#135 = DIRECTION ( 'NONE',  ( 1.000000000000000000, 0.000000000000000000, 0.000000000000000000 ) ) ;
#136 = DATE_TIME_ROLE ( 'creation_date' ) ;
#137 = APPROVAL_STATUS ( 'not_yet_approved' ) ;
#138 = EDGE_CURVE ( 'NONE', #79, #31, #161, .T. ) ;
#139 = CARTESIAN_POINT ( 'NONE',  ( 12.50000000000000000, 1.530808498934191521E-15, 4.000000000000000000 ) ) ;
#140 = CIRCLE ( 'NONE', #85, 12.50000000000000000 ) ;
#141 = CARTESIAN_POINT ( 'NONE',  ( 0.000000000000000000, 0.000000000000000000, 0.000000000000000000 ) ) ;
#142 = ORIENTED_EDGE ( 'NONE', *, *, #30, .F. ) ;
#143 = CARTESIAN_POINT ( 'NONE',  ( 0.000000000000000000, 0.000000000000000000, 4.000000000000000000 ) ) ;
#144 = DIRECTION ( 'NONE',  ( -1.000000000000000000, 0.000000000000000000, 0.000000000000000000 ) ) ;
#145 = PRODUCT_RELATED_PRODUCT_CATEGORY ( 'detail', '', ( #147 ) ) ;
#146 = PERSON_AND_ORGANIZATION_ROLE ( 'design_supplier' ) ;
#147 = PRODUCT ( 'Web Model 19837_19863', 'Web Model 19837_19863', '', ( #16 ) ) ;
#148 = PERSON_AND_ORGANIZATION ( #153, #91 ) ;
#149 = EDGE_CURVE ( 'NONE', #172, #79, #8, .T. ) ;
#150 = DIRECTION ( 'NONE',  ( 0.000000000000000000, 0.000000000000000000, 1.000000000000000000 ) ) ;
#151 = CYLINDRICAL_SURFACE ( 'NONE', #102, 12.50000000000000000 ) ;
#152 = COORDINATED_UNIVERSAL_TIME_OFFSET ( 5, 0, .BEHIND. ) ;
#153 = PERSON ( 'UNSPECIFIED', 'UNSPECIFIED', 'UNSPECIFIED', ('UNSPECIFIED'), ('UNSPECIFIED'), ('UNSPECIFIED') ) ;
#154 = CARTESIAN_POINT ( 'NONE',  ( 0.000000000000000000, 0.000000000000000000, 0.000000000000000000 ) ) ;
#155 = CARTESIAN_POINT ( 'NONE',  ( 0.000000000000000000, 0.000000000000000000, 0.000000000000000000 ) ) ;
#156 = AXIS2_PLACEMENT_3D ( 'NONE', #12, #69, #106 ) ;
#157 = DIRECTION ( 'NONE',  ( -0.000000000000000000, -0.000000000000000000, -1.000000000000000000 ) ) ;
#158 = DIRECTION ( 'NONE',  ( 0.000000000000000000, 0.000000000000000000, 1.000000000000000000 ) ) ;
#159 = VECTOR ( 'NONE', #49, 1000.000000000000000 ) ;
#160 = DIRECTION ( 'NONE',  ( 0.000000000000000000, 0.000000000000000000, 1.000000000000000000 ) ) ;
#161 = LINE ( 'NONE', #109, #159 ) ;
#162 = CIRCLE ( 'NONE', #38, 12.50000000000000000 ) ;
#163 = AXIS2_PLACEMENT_3D ( 'NONE', #141, #96, #15 ) ;
#164 = APPLICATION_PROTOCOL_DEFINITION ( 'international standard', 'config_control_design', 1994, #133 ) ;
#165 = APPROVAL_ROLE ( '' ) ;
#166 = APPROVAL ( #137, 'UNSPECIFIED' ) ;
#167 = CALENDAR_DATE ( 2022, 6, 4 ) ;
#168 = CC_DESIGN_APPROVAL ( #93, ( #173 ) ) ;
#169 = CC_DESIGN_PERSON_AND_ORGANIZATION_ASSIGNMENT ( #112, #9, ( #5 ) ) ;
#170 = EDGE_LOOP ( 'NONE', ( #120, #94 ) ) ;
#171 = EDGE_LOOP ( 'NONE', ( #116, #142, #42, #129 ) ) ;
#172 = VERTEX_POINT ( 'NONE', #125 ) ;
#173 = PRODUCT_DEFINITION_FORMATION_WITH_SPECIFIED_SOURCE ( 'ANY', '', #147, .NOT_KNOWN. ) ;
#174 = CARTESIAN_POINT ( 'NONE',  ( -12.50000000000000000, 0.000000000000000000, 0.000000000000000000 ) ) ;
#175 = ADVANCED_FACE ( 'NONE', ( #48 ), #151, .T. ) ;
ENDSEC;
END-ISO-10303-21;
