ISO-10303-21;
HEADER;
FILE_DESCRIPTION (( 'STEP AP203' ),
    '1' );
FILE_NAME ('Web Model 64092.STEP',
    '2017-01-31T19:04:44',
    ( '' ),
    ( '' ),
    'SwSTEP 2.0',
    'SolidWorks 2016',
    '' );
FILE_SCHEMA (( 'CONFIG_CONTROL_DESIGN' ));
ENDSEC;

DATA;
#1 = DATE_TIME_ROLE ( 'creation_date' ) ;
#2 = CIRCLE ( 'NONE', #165, 2.499999999999998700 ) ;
#3 = DIRECTION ( 'NONE',  ( 1.000000000000000000, 0.0000000000000000000, 0.0000000000000000000 ) ) ;
#4 = CC_DESIGN_PERSON_AND_ORGANIZATION_ASSIGNMENT ( #144, #7, ( #132 ) ) ;
#5 = PERSON_AND_ORGANIZATION_ROLE ( 'creator' ) ;
#6 = EDGE_CURVE ( 'NONE', #159, #85, #12, .T. ) ;
#7 = PERSON_AND_ORGANIZATION_ROLE ( 'classification_officer' ) ;
#8 = CALENDAR_DATE ( 2017, 31, 1 ) ;
#9 = UNCERTAINTY_MEASURE_WITH_UNIT (LENGTH_MEASURE( 1.000000000000000100E-005 ), #26, 'distance_accuracy_value', 'NONE');
#10 = CC_DESIGN_DATE_AND_TIME_ASSIGNMENT ( #43, #18, ( #132 ) ) ;
#11 = CIRCLE ( 'NONE', #80, 2.499999999999998700 ) ;
#12 = LINE ( 'NONE', #28, #155 ) ;
#13 = AXIS2_PLACEMENT_3D ( 'NONE', #96, #125, #24 ) ;
#14 =( NAMED_UNIT ( * ) PLANE_ANGLE_UNIT ( ) SI_UNIT ( $, .RADIAN. ) );
#15 = ORIENTED_EDGE ( 'NONE', *, *, #66, .F. ) ;
#16 = PRODUCT ( 'Web Model 64092', 'Web Model 64092', '', ( #48 ) ) ;
#17 = CARTESIAN_POINT ( 'NONE',  ( 0.0000000000000000000, 3.061616997868381700E-016, -2.499999999999998700 ) ) ;
#18 = DATE_TIME_ROLE ( 'classification_date' ) ;
#19 = PERSON_AND_ORGANIZATION ( #137, #141 ) ;
#20 = AXIS2_PLACEMENT_3D ( 'NONE', #113, #40, #135 ) ;
#21 = DIRECTION ( 'NONE',  ( 1.000000000000000000, 0.0000000000000000000, 0.0000000000000000000 ) ) ;
#22 = CIRCLE ( 'NONE', #100, 2.499999999999998700 ) ;
#23 = APPROVAL_STATUS ( 'not_yet_approved' ) ;
#24 = DIRECTION ( 'NONE',  ( 0.0000000000000000000, 0.0000000000000000000, 1.000000000000000000 ) ) ;
#25 = ADVANCED_FACE ( 'NONE', ( #47 ), #105, .T. ) ;
#26 =( LENGTH_UNIT ( ) NAMED_UNIT ( * ) SI_UNIT ( .MILLI., .METRE. ) );
#27 = CALENDAR_DATE ( 2017, 31, 1 ) ;
#28 = CARTESIAN_POINT ( 'NONE',  ( 1.000000000000000000, 3.061616997868381700E-016, -2.499999999999998700 ) ) ;
#29 = FACE_OUTER_BOUND ( 'NONE', #136, .T. ) ;
#30 = APPROVAL_STATUS ( 'not_yet_approved' ) ;
#31 = CALENDAR_DATE ( 2017, 31, 1 ) ;
#32 = PERSON_AND_ORGANIZATION ( #137, #141 ) ;
#33 = DIRECTION ( 'NONE',  ( 1.000000000000000000, 0.0000000000000000000, 0.0000000000000000000 ) ) ;
#34 = CALENDAR_DATE ( 2017, 31, 1 ) ;
#35 = CARTESIAN_POINT ( 'NONE',  ( 0.0000000000000000000, 0.0000000000000000000, 2.499999999999998700 ) ) ;
#36 = EDGE_CURVE ( 'NONE', #87, #159, #2, .T. ) ;
#37 = DESIGN_CONTEXT ( 'detailed design', #122, 'design' ) ;
#38 = DIRECTION ( 'NONE',  ( 0.0000000000000000000, 0.0000000000000000000, -1.000000000000000000 ) ) ;
#39 = CC_DESIGN_APPROVAL ( #99, ( #172 ) ) ;
#40 = DIRECTION ( 'NONE',  ( 1.000000000000000000, 0.0000000000000000000, 0.0000000000000000000 ) ) ;
#41 = APPROVAL_STATUS ( 'not_yet_approved' ) ;
#42 = CARTESIAN_POINT ( 'NONE',  ( 1.000000000000000000, 0.0000000000000000000, 0.0000000000000000000 ) ) ;
#43 = DATE_AND_TIME ( #31, #112 ) ;
#44 = MANIFOLD_SOLID_BREP ( 'Extrude1', #78 ) ;
#45 = ORIENTED_EDGE ( 'NONE', *, *, #36, .T. ) ;
#46 = EDGE_LOOP ( 'NONE', ( #15, #118 ) ) ;
#47 = FACE_OUTER_BOUND ( 'NONE', #81, .T. ) ;
#48 = MECHANICAL_CONTEXT ( 'NONE', #92, 'mechanical' ) ;
#49 = APPROVAL_ROLE ( '' ) ;
#50 = CARTESIAN_POINT ( 'NONE',  ( 1.000000000000000000, 3.061616997868381700E-016, -2.499999999999998700 ) ) ;
#51 = DATE_AND_TIME ( #138, #173 ) ;
#52 = ORIENTED_EDGE ( 'NONE', *, *, #6, .F. ) ;
#53 = CARTESIAN_POINT ( 'NONE',  ( 1.000000000000000000, 0.0000000000000000000, 2.499999999999998700 ) ) ;
#54 = PLANE ( 'NONE',  #60 ) ;
#55 = SECURITY_CLASSIFICATION_LEVEL ( 'unclassified' ) ;
#56 = CARTESIAN_POINT ( 'NONE',  ( 1.000000000000000000, 0.0000000000000000000, 0.0000000000000000000 ) ) ;
#57 = PERSON_AND_ORGANIZATION ( #137, #141 ) ;
#58 = PERSON_AND_ORGANIZATION ( #137, #141 ) ;
#59 = ORIENTED_EDGE ( 'NONE', *, *, #93, .T. ) ;
#60 = AXIS2_PLACEMENT_3D ( 'NONE', #142, #140, #158 ) ;
#61 = LOCAL_TIME ( 14, 4, 44.00000000000000000, #101 ) ;
#62 = CARTESIAN_POINT ( 'NONE',  ( 0.0000000000000000000, 0.0000000000000000000, 0.0000000000000000000 ) ) ;
#63 = COORDINATED_UNIVERSAL_TIME_OFFSET ( 5, 0, .BEHIND. ) ;
#64 = CC_DESIGN_APPROVAL ( #86, ( #145 ) ) ;
#65 = DIRECTION ( 'NONE',  ( 0.0000000000000000000, 0.0000000000000000000, 1.000000000000000000 ) ) ;
#66 = EDGE_CURVE ( 'NONE', #168, #85, #120, .T. ) ;
#67 = ORIENTED_EDGE ( 'NONE', *, *, #36, .F. ) ;
#68 = ADVANCED_BREP_SHAPE_REPRESENTATION ( 'Web Model 64092', ( #44, #69 ), #171 ) ;
#69 = AXIS2_PLACEMENT_3D ( 'NONE', #107, #91, #152 ) ;
#70 = ADVANCED_FACE ( 'NONE', ( #29 ), #170, .T. ) ;
#71 = DATE_AND_TIME ( #34, #166 ) ;
#72 = ORIENTED_EDGE ( 'NONE', *, *, #6, .T. ) ;
#73 = CC_DESIGN_PERSON_AND_ORGANIZATION_ASSIGNMENT ( #58, #149, ( #172 ) ) ;
#74 = AXIS2_PLACEMENT_3D ( 'NONE', #163, #121, #65 ) ;
#75 = ADVANCED_FACE ( 'NONE', ( #97 ), #115, .F. ) ;
#76 = EDGE_LOOP ( 'NONE', ( #45, #156 ) ) ;
#77 = LINE ( 'NONE', #139, #167 ) ;
#78 = CLOSED_SHELL ( 'NONE', ( #25, #70, #153, #75 ) ) ;
#79 = DIRECTION ( 'NONE',  ( -1.000000000000000000, -0.0000000000000000000, -0.0000000000000000000 ) ) ;
#80 = AXIS2_PLACEMENT_3D ( 'NONE', #56, #33, #128 ) ;
#81 = EDGE_LOOP ( 'NONE', ( #130, #72, #90, #98 ) ) ;
#82 = APPROVAL_ROLE ( '' ) ;
#83 = CC_DESIGN_PERSON_AND_ORGANIZATION_ASSIGNMENT ( #147, #5, ( #145 ) ) ;
#84 = LOCAL_TIME ( 14, 4, 44.00000000000000000, #127 ) ;
#85 = VERTEX_POINT ( 'NONE', #17 ) ;
#86 = APPROVAL ( #41, 'UNSPECIFIED' ) ;
#87 = VERTEX_POINT ( 'NONE', #53 ) ;
#88 = COORDINATED_UNIVERSAL_TIME_OFFSET ( 5, 0, .BEHIND. ) ;
#89 = APPLICATION_PROTOCOL_DEFINITION ( 'international standard', 'config_control_design', 1994, #92 ) ;
#90 = ORIENTED_EDGE ( 'NONE', *, *, #157, .T. ) ;
#91 = DIRECTION ( 'NONE',  ( 0.0000000000000000000, 0.0000000000000000000, 1.000000000000000000 ) ) ;
#92 = APPLICATION_CONTEXT ( 'configuration controlled 3d designs of mechanical parts and assemblies' ) ;
#93 = EDGE_CURVE ( 'NONE', #87, #168, #77, .T. ) ;
#94 = APPROVAL_ROLE ( '' ) ;
#95 = DIRECTION ( 'NONE',  ( 0.0000000000000000000, 0.0000000000000000000, -1.000000000000000000 ) ) ;
#96 = CARTESIAN_POINT ( 'NONE',  ( 1.000000000000000000, 0.0000000000000000000, 0.0000000000000000000 ) ) ;
#97 = FACE_OUTER_BOUND ( 'NONE', #46, .T. ) ;
#98 = ORIENTED_EDGE ( 'NONE', *, *, #93, .F. ) ;
#99 = APPROVAL ( #23, 'UNSPECIFIED' ) ;
#100 = AXIS2_PLACEMENT_3D ( 'NONE', #102, #21, #38 ) ;
#101 = COORDINATED_UNIVERSAL_TIME_OFFSET ( 5, 0, .BEHIND. ) ;
#102 = CARTESIAN_POINT ( 'NONE',  ( 0.0000000000000000000, 0.0000000000000000000, 0.0000000000000000000 ) ) ;
#103 = PRODUCT_DEFINITION_SHAPE ( 'NONE', 'NONE',  #172 ) ;
#104 = DATE_AND_TIME ( #8, #84 ) ;
#105 = CYLINDRICAL_SURFACE ( 'NONE', #13, 2.499999999999998700 ) ;
#106 = CC_DESIGN_PERSON_AND_ORGANIZATION_ASSIGNMENT ( #109, #116, ( #145 ) ) ;
#107 = CARTESIAN_POINT ( 'NONE',  ( 0.0000000000000000000, 0.0000000000000000000, 0.0000000000000000000 ) ) ;
#108 = DIRECTION ( 'NONE',  ( 1.000000000000000000, 0.0000000000000000000, 0.0000000000000000000 ) ) ;
#109 = PERSON_AND_ORGANIZATION ( #137, #141 ) ;
#110 = EDGE_CURVE ( 'NONE', #159, #87, #11, .T. ) ;
#111 = DIRECTION ( 'NONE',  ( -1.000000000000000000, -0.0000000000000000000, -0.0000000000000000000 ) ) ;
#112 = LOCAL_TIME ( 14, 4, 44.00000000000000000, #63 ) ;
#113 = CARTESIAN_POINT ( 'NONE',  ( 0.0000000000000000000, 0.0000000000000000000, 0.0000000000000000000 ) ) ;
#114 = APPROVAL_PERSON_ORGANIZATION ( #57, #123, #82 ) ;
#115 = PLANE ( 'NONE',  #129 ) ;
#116 = PERSON_AND_ORGANIZATION_ROLE ( 'design_supplier' ) ;
#117 = COORDINATED_UNIVERSAL_TIME_OFFSET ( 5, 0, .BEHIND. ) ;
#118 = ORIENTED_EDGE ( 'NONE', *, *, #157, .F. ) ;
#119 = CC_DESIGN_APPROVAL ( #123, ( #132 ) ) ;
#120 = CIRCLE ( 'NONE', #20, 2.499999999999998700 ) ;
#121 = DIRECTION ( 'NONE',  ( -1.000000000000000000, -0.0000000000000000000, -0.0000000000000000000 ) ) ;
#122 = APPLICATION_CONTEXT ( 'configuration controlled 3d designs of mechanical parts and assemblies' ) ;
#123 = APPROVAL ( #30, 'UNSPECIFIED' ) ;
#124 = APPROVAL_PERSON_ORGANIZATION ( #19, #86, #94 ) ;
#125 = DIRECTION ( 'NONE',  ( -1.000000000000000000, -0.0000000000000000000, -0.0000000000000000000 ) ) ;
#126 = CC_DESIGN_DATE_AND_TIME_ASSIGNMENT ( #71, #1, ( #172 ) ) ;
#127 = COORDINATED_UNIVERSAL_TIME_OFFSET ( 5, 0, .BEHIND. ) ;
#128 = DIRECTION ( 'NONE',  ( 0.0000000000000000000, 0.0000000000000000000, -1.000000000000000000 ) ) ;
#129 = AXIS2_PLACEMENT_3D ( 'NONE', #62, #3, #95 ) ;
#130 = ORIENTED_EDGE ( 'NONE', *, *, #110, .F. ) ;
#131 = APPROVAL_DATE_TIME ( #169, #99 ) ;
#132 = SECURITY_CLASSIFICATION ( '', '', #55 ) ;
#133 = CC_DESIGN_SECURITY_CLASSIFICATION ( #132, ( #145 ) ) ;
#134 = DIRECTION ( 'NONE',  ( 0.0000000000000000000, 0.0000000000000000000, -1.000000000000000000 ) ) ;
#135 = DIRECTION ( 'NONE',  ( 0.0000000000000000000, 0.0000000000000000000, -1.000000000000000000 ) ) ;
#136 = EDGE_LOOP ( 'NONE', ( #52, #67, #59, #161 ) ) ;
#137 = PERSON ( 'UNSPECIFIED', 'UNSPECIFIED', 'UNSPECIFIED', ('UNSPECIFIED'), ('UNSPECIFIED'), ('UNSPECIFIED') ) ;
#138 = CALENDAR_DATE ( 2017, 31, 1 ) ;
#139 = CARTESIAN_POINT ( 'NONE',  ( 1.000000000000000000, 0.0000000000000000000, 2.499999999999998700 ) ) ;
#140 = DIRECTION ( 'NONE',  ( 1.000000000000000000, 0.0000000000000000000, 0.0000000000000000000 ) ) ;
#141 = ORGANIZATION ( 'UNSPECIFIED', 'UNSPECIFIED', '' ) ;
#142 = CARTESIAN_POINT ( 'NONE',  ( 1.000000000000000000, 0.0000000000000000000, 0.0000000000000000000 ) ) ;
#143 = CC_DESIGN_PERSON_AND_ORGANIZATION_ASSIGNMENT ( #32, #148, ( #16 ) ) ;
#144 = PERSON_AND_ORGANIZATION ( #137, #141 ) ;
#145 = PRODUCT_DEFINITION_FORMATION_WITH_SPECIFIED_SOURCE ( 'ANY', '', #16, .NOT_KNOWN. ) ;
#146 = PRODUCT_RELATED_PRODUCT_CATEGORY ( 'detail', '', ( #16 ) ) ;
#147 = PERSON_AND_ORGANIZATION ( #137, #141 ) ;
#148 = PERSON_AND_ORGANIZATION_ROLE ( 'design_owner' ) ;
#149 = PERSON_AND_ORGANIZATION_ROLE ( 'creator' ) ;
#150 =( NAMED_UNIT ( * ) SI_UNIT ( $, .STERADIAN. ) SOLID_ANGLE_UNIT ( ) );
#151 = APPROVAL_DATE_TIME ( #104, #86 ) ;
#152 = DIRECTION ( 'NONE',  ( 1.000000000000000000, 0.0000000000000000000, 0.0000000000000000000 ) ) ;
#153 = ADVANCED_FACE ( 'NONE', ( #154 ), #54, .T. ) ;
#154 = FACE_OUTER_BOUND ( 'NONE', #76, .T. ) ;
#155 = VECTOR ( 'NONE', #111, 1000.000000000000000 ) ;
#156 = ORIENTED_EDGE ( 'NONE', *, *, #110, .T. ) ;
#157 = EDGE_CURVE ( 'NONE', #85, #168, #22, .T. ) ;
#158 = DIRECTION ( 'NONE',  ( 0.0000000000000000000, 0.0000000000000000000, -1.000000000000000000 ) ) ;
#159 = VERTEX_POINT ( 'NONE', #50 ) ;
#160 = APPROVAL_DATE_TIME ( #51, #123 ) ;
#161 = ORIENTED_EDGE ( 'NONE', *, *, #66, .T. ) ;
#162 = APPLICATION_PROTOCOL_DEFINITION ( 'international standard', 'config_control_design', 1994, #122 ) ;
#163 = CARTESIAN_POINT ( 'NONE',  ( 1.000000000000000000, 0.0000000000000000000, 0.0000000000000000000 ) ) ;
#164 = SHAPE_DEFINITION_REPRESENTATION ( #103, #68 ) ;
#165 = AXIS2_PLACEMENT_3D ( 'NONE', #42, #108, #134 ) ;
#166 = LOCAL_TIME ( 14, 4, 44.00000000000000000, #117 ) ;
#167 = VECTOR ( 'NONE', #79, 1000.000000000000000 ) ;
#168 = VERTEX_POINT ( 'NONE', #35 ) ;
#169 = DATE_AND_TIME ( #27, #61 ) ;
#170 = CYLINDRICAL_SURFACE ( 'NONE', #74, 2.499999999999998700 ) ;
#171 =( GEOMETRIC_REPRESENTATION_CONTEXT ( 3 ) GLOBAL_UNCERTAINTY_ASSIGNED_CONTEXT ( ( #9 ) ) GLOBAL_UNIT_ASSIGNED_CONTEXT ( ( #26, #14, #150 ) ) REPRESENTATION_CONTEXT ( 'NONE', 'WORKASPACE' ) );
#172 = PRODUCT_DEFINITION ( 'UNKNOWN', '', #145, #37 ) ;
#173 = LOCAL_TIME ( 14, 4, 44.00000000000000000, #88 ) ;
#174 = PERSON_AND_ORGANIZATION ( #137, #141 ) ;
#175 = APPROVAL_PERSON_ORGANIZATION ( #174, #99, #49 ) ;
ENDSEC;
END-ISO-10303-21;
