ISO-10303-21;
HEADER;
FILE_DESCRIPTION (( 'STEP AP203' ),
    '1' );
FILE_NAME ('Web Model 39399_39412.step',
    '2018-10-05T20:51:52',
    ( '' ),
    ( '' ),
    'SwSTEP 2.0',
    'SolidWorks 2016',
    '' );
FILE_SCHEMA (( 'CONFIG_CONTROL_DESIGN' ));
ENDSEC;

DATA;
#1 = APPROVAL_PERSON_ORGANIZATION ( #156, #153, #20 ) ;
#2 = CIRCLE ( 'NONE', #175, 25.00000000000000000 ) ;
#3 = EDGE_LOOP ( 'NONE', ( #51, #68 ) ) ;
#4 = PERSON_AND_ORGANIZATION ( #23, #123 ) ;
#5 = APPROVAL ( #174, 'UNSPECIFIED' ) ;
#6 = DIRECTION ( 'NONE',  ( 1.000000000000000000, 0.0000000000000000000, 0.0000000000000000000 ) ) ;
#7 = DIRECTION ( 'NONE',  ( -1.000000000000000000, 0.0000000000000000000, 0.0000000000000000000 ) ) ;
#8 = CARTESIAN_POINT ( 'NONE',  ( 0.0000000000000000000, 0.0000000000000000000, 2.500000000000000000 ) ) ;
#9 = APPROVAL_STATUS ( 'not_yet_approved' ) ;
#10 = EDGE_CURVE ( 'NONE', #39, #130, #143, .T. ) ;
#11 = PERSON_AND_ORGANIZATION_ROLE ( 'creator' ) ;
#12 = ADVANCED_FACE ( 'NONE', ( #115 ), #96, .T. ) ;
#13 = COORDINATED_UNIVERSAL_TIME_OFFSET ( 5, 0, .BEHIND. ) ;
#14 = LINE ( 'NONE', #74, #85 ) ;
#15 = EDGE_LOOP ( 'NONE', ( #152, #116, #112, #61 ) ) ;
#16 = PRODUCT_DEFINITION ( 'UNKNOWN', '', #21, #95 ) ;
#17 = APPROVAL_STATUS ( 'not_yet_approved' ) ;
#18 = EDGE_CURVE ( 'NONE', #130, #39, #167, .T. ) ;
#19 = COORDINATED_UNIVERSAL_TIME_OFFSET ( 5, 0, .BEHIND. ) ;
#20 = APPROVAL_ROLE ( '' ) ;
#21 = PRODUCT_DEFINITION_FORMATION_WITH_SPECIFIED_SOURCE ( 'ANY', '', #66, .NOT_KNOWN. ) ;
#22 = ADVANCED_FACE ( 'NONE', ( #103 ), #127, .T. ) ;
#23 = PERSON ( 'UNSPECIFIED', 'UNSPECIFIED', 'UNSPECIFIED', ('UNSPECIFIED'), ('UNSPECIFIED'), ('UNSPECIFIED') ) ;
#24 = LOCAL_TIME ( 16, 51, 52.00000000000000000, #56 ) ;
#25 = VERTEX_POINT ( 'NONE', #100 ) ;
#26 = PERSON_AND_ORGANIZATION ( #23, #123 ) ;
#27 = CC_DESIGN_PERSON_AND_ORGANIZATION_ASSIGNMENT ( #4, #11, ( #21 ) ) ;
#28 = CC_DESIGN_APPROVAL ( #5, ( #21 ) ) ;
#29 = LOCAL_TIME ( 16, 51, 52.00000000000000000, #142 ) ;
#30 = ORIENTED_EDGE ( 'NONE', *, *, #10, .T. ) ;
#31 = PERSON_AND_ORGANIZATION_ROLE ( 'creator' ) ;
#32 = PERSON_AND_ORGANIZATION_ROLE ( 'design_supplier' ) ;
#33 = MECHANICAL_CONTEXT ( 'NONE', #138, 'mechanical' ) ;
#34 = ORIENTED_EDGE ( 'NONE', *, *, #52, .T. ) ;
#35 =( NAMED_UNIT ( * ) PLANE_ANGLE_UNIT ( ) SI_UNIT ( $, .RADIAN. ) );
#36 = VERTEX_POINT ( 'NONE', #69 ) ;
#37 = AXIS2_PLACEMENT_3D ( 'NONE', #159, #158, #147 ) ;
#38 = SECURITY_CLASSIFICATION ( '', '', #108 ) ;
#39 = VERTEX_POINT ( 'NONE', #70 ) ;
#40 = DIRECTION ( 'NONE',  ( 1.000000000000000000, 0.0000000000000000000, 0.0000000000000000000 ) ) ;
#41 = APPROVAL_DATE_TIME ( #60, #153 ) ;
#42 = CARTESIAN_POINT ( 'NONE',  ( 0.0000000000000000000, 0.0000000000000000000, -2.500000000000000000 ) ) ;
#43 = APPROVAL_ROLE ( '' ) ;
#44 = ADVANCED_BREP_SHAPE_REPRESENTATION ( 'Web Model 39399_39412', ( #128, #113 ), #111 ) ;
#45 =( LENGTH_UNIT ( ) NAMED_UNIT ( * ) SI_UNIT ( .MILLI., .METRE. ) );
#46 = APPLICATION_PROTOCOL_DEFINITION ( 'international standard', 'config_control_design', 1994, #138 ) ;
#47 = FACE_OUTER_BOUND ( 'NONE', #107, .T. ) ;
#48 = EDGE_CURVE ( 'NONE', #25, #36, #2, .T. ) ;
#49 = CC_DESIGN_APPROVAL ( #153, ( #16 ) ) ;
#50 = SHAPE_DEFINITION_REPRESENTATION ( #149, #44 ) ;
#51 = ORIENTED_EDGE ( 'NONE', *, *, #52, .F. ) ;
#52 = EDGE_CURVE ( 'NONE', #36, #25, #64, .T. ) ;
#53 = VECTOR ( 'NONE', #146, 1000.000000000000000 ) ;
#54 = FACE_OUTER_BOUND ( 'NONE', #3, .T. ) ;
#55 = CC_DESIGN_PERSON_AND_ORGANIZATION_ASSIGNMENT ( #110, #32, ( #21 ) ) ;
#56 = COORDINATED_UNIVERSAL_TIME_OFFSET ( 5, 0, .BEHIND. ) ;
#57 = CARTESIAN_POINT ( 'NONE',  ( 0.0000000000000000000, 0.0000000000000000000, 2.500000000000000000 ) ) ;
#58 = EDGE_CURVE ( 'NONE', #130, #25, #172, .T. ) ;
#59 = UNCERTAINTY_MEASURE_WITH_UNIT (LENGTH_MEASURE( 1.000000000000000100E-005 ), #45, 'distance_accuracy_value', 'NONE');
#60 = DATE_AND_TIME ( #165, #98 ) ;
#61 = ORIENTED_EDGE ( 'NONE', *, *, #163, .F. ) ;
#62 = PERSON_AND_ORGANIZATION_ROLE ( 'design_owner' ) ;
#63 = CARTESIAN_POINT ( 'NONE',  ( 25.00000000000000000, 3.061616997868383000E-015, 2.500000000000000000 ) ) ;
#64 = CIRCLE ( 'NONE', #148, 25.00000000000000000 ) ;
#65 = DATE_AND_TIME ( #102, #29 ) ;
#66 = PRODUCT ( 'Web Model 39399_39412', 'Web Model 39399_39412', '', ( #33 ) ) ;
#67 = PERSON_AND_ORGANIZATION ( #23, #123 ) ;
#68 = ORIENTED_EDGE ( 'NONE', *, *, #48, .F. ) ;
#69 = CARTESIAN_POINT ( 'NONE',  ( -25.00000000000000000, 0.0000000000000000000, -2.500000000000000000 ) ) ;
#70 = CARTESIAN_POINT ( 'NONE',  ( -25.00000000000000000, 0.0000000000000000000, 2.500000000000000000 ) ) ;
#71 = CARTESIAN_POINT ( 'NONE',  ( 0.0000000000000000000, 0.0000000000000000000, -2.500000000000000000 ) ) ;
#72 = DATE_AND_TIME ( #139, #114 ) ;
#73 = DIRECTION ( 'NONE',  ( 0.0000000000000000000, 0.0000000000000000000, 1.000000000000000000 ) ) ;
#74 = CARTESIAN_POINT ( 'NONE',  ( -25.00000000000000000, 0.0000000000000000000, 2.500000000000000000 ) ) ;
#75 =( NAMED_UNIT ( * ) SI_UNIT ( $, .STERADIAN. ) SOLID_ANGLE_UNIT ( ) );
#76 = CC_DESIGN_APPROVAL ( #137, ( #38 ) ) ;
#77 = CARTESIAN_POINT ( 'NONE',  ( 0.0000000000000000000, 0.0000000000000000000, 2.500000000000000000 ) ) ;
#78 = PLANE ( 'NONE',  #37 ) ;
#79 = ADVANCED_FACE ( 'NONE', ( #54 ), #78, .F. ) ;
#80 = ORIENTED_EDGE ( 'NONE', *, *, #18, .T. ) ;
#81 = CC_DESIGN_PERSON_AND_ORGANIZATION_ASSIGNMENT ( #118, #62, ( #66 ) ) ;
#82 = COORDINATED_UNIVERSAL_TIME_OFFSET ( 5, 0, .BEHIND. ) ;
#83 = ORIENTED_EDGE ( 'NONE', *, *, #58, .F. ) ;
#84 = CARTESIAN_POINT ( 'NONE',  ( 0.0000000000000000000, 0.0000000000000000000, 2.500000000000000000 ) ) ;
#85 = VECTOR ( 'NONE', #109, 1000.000000000000000 ) ;
#86 = DIRECTION ( 'NONE',  ( -1.000000000000000000, 0.0000000000000000000, 0.0000000000000000000 ) ) ;
#87 = APPLICATION_PROTOCOL_DEFINITION ( 'international standard', 'config_control_design', 1994, #173 ) ;
#88 = ORIENTED_EDGE ( 'NONE', *, *, #163, .T. ) ;
#89 = DIRECTION ( 'NONE',  ( 1.000000000000000000, 0.0000000000000000000, -0.0000000000000000000 ) ) ;
#90 = AXIS2_PLACEMENT_3D ( 'NONE', #77, #171, #89 ) ;
#91 = PERSON_AND_ORGANIZATION ( #23, #123 ) ;
#92 = CALENDAR_DATE ( 2018, 5, 10 ) ;
#93 = CLOSED_SHELL ( 'NONE', ( #12, #22, #124, #79 ) ) ;
#94 = APPROVAL_PERSON_ORGANIZATION ( #164, #5, #43 ) ;
#95 = DESIGN_CONTEXT ( 'detailed design', #173, 'design' ) ;
#96 = CYLINDRICAL_SURFACE ( 'NONE', #126, 25.00000000000000000 ) ;
#97 = CC_DESIGN_DATE_AND_TIME_ASSIGNMENT ( #72, #106, ( #16 ) ) ;
#98 = LOCAL_TIME ( 16, 51, 52.00000000000000000, #13 ) ;
#99 = AXIS2_PLACEMENT_3D ( 'NONE', #57, #134, #7 ) ;
#100 = CARTESIAN_POINT ( 'NONE',  ( 25.00000000000000000, 3.061616997868383000E-015, -2.500000000000000000 ) ) ;
#101 = DIRECTION ( 'NONE',  ( 1.000000000000000000, 0.0000000000000000000, 0.0000000000000000000 ) ) ;
#102 = CALENDAR_DATE ( 2018, 5, 10 ) ;
#103 = FACE_OUTER_BOUND ( 'NONE', #119, .T. ) ;
#104 = CARTESIAN_POINT ( 'NONE',  ( 0.0000000000000000000, 0.0000000000000000000, 2.500000000000000000 ) ) ;
#105 = DATE_TIME_ROLE ( 'classification_date' ) ;
#106 = DATE_TIME_ROLE ( 'creation_date' ) ;
#107 = EDGE_LOOP ( 'NONE', ( #30, #80 ) ) ;
#108 = SECURITY_CLASSIFICATION_LEVEL ( 'unclassified' ) ;
#109 = DIRECTION ( 'NONE',  ( -0.0000000000000000000, -0.0000000000000000000, -1.000000000000000000 ) ) ;
#110 = PERSON_AND_ORGANIZATION ( #23, #123 ) ;
#111 =( GEOMETRIC_REPRESENTATION_CONTEXT ( 3 ) GLOBAL_UNCERTAINTY_ASSIGNED_CONTEXT ( ( #59 ) ) GLOBAL_UNIT_ASSIGNED_CONTEXT ( ( #45, #35, #75 ) ) REPRESENTATION_CONTEXT ( 'NONE', 'WORKASPACE' ) );
#112 = ORIENTED_EDGE ( 'NONE', *, *, #48, .T. ) ;
#113 = AXIS2_PLACEMENT_3D ( 'NONE', #170, #157, #122 ) ;
#114 = LOCAL_TIME ( 16, 51, 52.00000000000000000, #82 ) ;
#115 = FACE_OUTER_BOUND ( 'NONE', #15, .T. ) ;
#116 = ORIENTED_EDGE ( 'NONE', *, *, #58, .T. ) ;
#117 = DIRECTION ( 'NONE',  ( 0.0000000000000000000, 0.0000000000000000000, 1.000000000000000000 ) ) ;
#118 = PERSON_AND_ORGANIZATION ( #23, #123 ) ;
#119 = EDGE_LOOP ( 'NONE', ( #83, #151, #88, #34 ) ) ;
#120 = DIRECTION ( 'NONE',  ( -0.0000000000000000000, -0.0000000000000000000, -1.000000000000000000 ) ) ;
#121 = DIRECTION ( 'NONE',  ( 1.000000000000000000, 0.0000000000000000000, 0.0000000000000000000 ) ) ;
#122 = DIRECTION ( 'NONE',  ( 1.000000000000000000, 0.0000000000000000000, 0.0000000000000000000 ) ) ;
#123 = ORGANIZATION ( 'UNSPECIFIED', 'UNSPECIFIED', '' ) ;
#124 = ADVANCED_FACE ( 'NONE', ( #47 ), #155, .T. ) ;
#125 = APPROVAL_DATE_TIME ( #129, #5 ) ;
#126 = AXIS2_PLACEMENT_3D ( 'NONE', #104, #120, #86 ) ;
#127 = CYLINDRICAL_SURFACE ( 'NONE', #99, 25.00000000000000000 ) ;
#128 = MANIFOLD_SOLID_BREP ( 'Boss-Extrude1', #93 ) ;
#129 = DATE_AND_TIME ( #135, #24 ) ;
#130 = VERTEX_POINT ( 'NONE', #63 ) ;
#131 = PRODUCT_RELATED_PRODUCT_CATEGORY ( 'detail', '', ( #66 ) ) ;
#132 = AXIS2_PLACEMENT_3D ( 'NONE', #84, #73, #40 ) ;
#133 = DIRECTION ( 'NONE',  ( 0.0000000000000000000, 0.0000000000000000000, 1.000000000000000000 ) ) ;
#134 = DIRECTION ( 'NONE',  ( -0.0000000000000000000, -0.0000000000000000000, -1.000000000000000000 ) ) ;
#135 = CALENDAR_DATE ( 2018, 5, 10 ) ;
#136 = APPROVAL_ROLE ( '' ) ;
#137 = APPROVAL ( #17, 'UNSPECIFIED' ) ;
#138 = APPLICATION_CONTEXT ( 'configuration controlled 3d designs of mechanical parts and assemblies' ) ;
#139 = CALENDAR_DATE ( 2018, 5, 10 ) ;
#140 = APPROVAL_DATE_TIME ( #166, #137 ) ;
#141 = CC_DESIGN_PERSON_AND_ORGANIZATION_ASSIGNMENT ( #26, #31, ( #16 ) ) ;
#142 = COORDINATED_UNIVERSAL_TIME_OFFSET ( 5, 0, .BEHIND. ) ;
#143 = CIRCLE ( 'NONE', #132, 25.00000000000000000 ) ;
#144 = CC_DESIGN_SECURITY_CLASSIFICATION ( #38, ( #21 ) ) ;
#145 = CARTESIAN_POINT ( 'NONE',  ( 25.00000000000000000, 3.061616997868383000E-015, 2.500000000000000000 ) ) ;
#146 = DIRECTION ( 'NONE',  ( -0.0000000000000000000, -0.0000000000000000000, -1.000000000000000000 ) ) ;
#147 = DIRECTION ( 'NONE',  ( 1.000000000000000000, 0.0000000000000000000, -0.0000000000000000000 ) ) ;
#148 = AXIS2_PLACEMENT_3D ( 'NONE', #71, #117, #121 ) ;
#149 = PRODUCT_DEFINITION_SHAPE ( 'NONE', 'NONE',  #16 ) ;
#150 = AXIS2_PLACEMENT_3D ( 'NONE', #8, #154, #101 ) ;
#151 = ORIENTED_EDGE ( 'NONE', *, *, #10, .F. ) ;
#152 = ORIENTED_EDGE ( 'NONE', *, *, #18, .F. ) ;
#153 = APPROVAL ( #9, 'UNSPECIFIED' ) ;
#154 = DIRECTION ( 'NONE',  ( 0.0000000000000000000, 0.0000000000000000000, 1.000000000000000000 ) ) ;
#155 = PLANE ( 'NONE',  #90 ) ;
#156 = PERSON_AND_ORGANIZATION ( #23, #123 ) ;
#157 = DIRECTION ( 'NONE',  ( 0.0000000000000000000, 0.0000000000000000000, 1.000000000000000000 ) ) ;
#158 = DIRECTION ( 'NONE',  ( 0.0000000000000000000, 0.0000000000000000000, 1.000000000000000000 ) ) ;
#159 = CARTESIAN_POINT ( 'NONE',  ( 0.0000000000000000000, 0.0000000000000000000, -2.500000000000000000 ) ) ;
#160 = APPROVAL_PERSON_ORGANIZATION ( #91, #137, #136 ) ;
#161 = CC_DESIGN_PERSON_AND_ORGANIZATION_ASSIGNMENT ( #67, #168, ( #38 ) ) ;
#162 = LOCAL_TIME ( 16, 51, 52.00000000000000000, #19 ) ;
#163 = EDGE_CURVE ( 'NONE', #39, #36, #14, .T. ) ;
#164 = PERSON_AND_ORGANIZATION ( #23, #123 ) ;
#165 = CALENDAR_DATE ( 2018, 5, 10 ) ;
#166 = DATE_AND_TIME ( #92, #162 ) ;
#167 = CIRCLE ( 'NONE', #150, 25.00000000000000000 ) ;
#168 = PERSON_AND_ORGANIZATION_ROLE ( 'classification_officer' ) ;
#169 = CC_DESIGN_DATE_AND_TIME_ASSIGNMENT ( #65, #105, ( #38 ) ) ;
#170 = CARTESIAN_POINT ( 'NONE',  ( 0.0000000000000000000, 0.0000000000000000000, 0.0000000000000000000 ) ) ;
#171 = DIRECTION ( 'NONE',  ( 0.0000000000000000000, 0.0000000000000000000, 1.000000000000000000 ) ) ;
#172 = LINE ( 'NONE', #145, #53 ) ;
#173 = APPLICATION_CONTEXT ( 'configuration controlled 3d designs of mechanical parts and assemblies' ) ;
#174 = APPROVAL_STATUS ( 'not_yet_approved' ) ;
#175 = AXIS2_PLACEMENT_3D ( 'NONE', #42, #133, #6 ) ;
ENDSEC;
END-ISO-10303-21;
