ISO-10303-21;
HEADER;
FILE_DESCRIPTION (( 'STEP AP203' ),
    '1' );
FILE_NAME ('4336-E0W.STEP',
    '2015-06-17T20:48:13',
    ( 'admin' ),
    ( '' ),
    'SwSTEP 2.0',
    'SolidWorks 2014',
    '' );
FILE_SCHEMA (( 'CONFIG_CONTROL_DESIGN' ));
ENDSEC;

DATA;
#1 = CARTESIAN_POINT ( 'NONE',  ( 0.0000000000000000000, 0.0000000000000000000, 1.515179820056888900 ) ) ;
#2 = AXIS2_PLACEMENT_3D ( 'NONE', #232, #218, #145 ) ;
#3 = CC_DESIGN_APPROVAL ( #292, ( #351 ) ) ;
#4 = CONICAL_SURFACE ( 'NONE', #314, 25.15167746928911900, 0.7298496574000388200 ) ;
#5 = PERSON_AND_ORGANIZATION ( #132, #30 ) ;
#6 = CARTESIAN_POINT ( 'NONE',  ( 0.0000000000000000000, 0.0000000000000000000, 226.2000000000000200 ) ) ;
#7 = EDGE_CURVE ( 'NONE', #332, #286, #95, .T. ) ;
#8 = ORIENTED_EDGE ( 'NONE', *, *, #363, .F. ) ;
#9 = CARTESIAN_POINT ( 'NONE',  ( 0.0000000000000000000, 25.15167746928918300, 1.515179820056888900 ) ) ;
#10 = ORIENTED_EDGE ( 'NONE', *, *, #161, .T. ) ;
#11 = DIRECTION ( 'NONE',  ( 0.0000000000000000000, 1.000000000000000000, 0.0000000000000000000 ) ) ;
#12 = DIRECTION ( 'NONE',  ( 1.000000000000000000, 0.0000000000000000000, 0.0000000000000000000 ) ) ;
#13 = CARTESIAN_POINT ( 'NONE',  ( -25.15167746928911900, 0.0000000000000000000, 1.515179820056888900 ) ) ;
#14 = AXIS2_PLACEMENT_3D ( 'NONE', #137, #241, #249 ) ;
#15 = CIRCLE ( 'NONE', #335, 25.39999999999999900 ) ;
#16 = CARTESIAN_POINT ( 'NONE',  ( 0.0000000000000000000, 0.0000000000000000000, 1.515179820056888900 ) ) ;
#17 = ORIENTED_EDGE ( 'NONE', *, *, #62, .T. ) ;
#18 = LOCAL_TIME ( 16, 48, 13.00000000000000000, #56 ) ;
#19 = VECTOR ( 'NONE', #234, 1000.000000000000000 ) ;
#20 = DIRECTION ( 'NONE',  ( 1.000000000000000000, 0.0000000000000000000, 0.0000000000000000000 ) ) ;
#21 = APPROVAL_STATUS ( 'not_yet_approved' ) ;
#22 = MANIFOLD_SOLID_BREP ( '4336-001-1-solid1', #347 ) ;
#23 = DIRECTION ( 'NONE',  ( 1.000000000000000000, 0.0000000000000000000, 0.0000000000000000000 ) ) ;
#24 = ORIENTED_EDGE ( 'NONE', *, *, #322, .F. ) ;
#25 = ORIENTED_EDGE ( 'NONE', *, *, #126, .T. ) ;
#26 = CC_DESIGN_PERSON_AND_ORGANIZATION_ASSIGNMENT ( #200, #287, ( #65 ) ) ;
#27 = SPHERICAL_SURFACE ( 'NONE', #2, 229.0999999999999900 ) ;
#28 = ADVANCED_FACE ( 'NONE', ( #189 ), #74, .T. ) ;
#29 = EDGE_CURVE ( 'NONE', #315, #324, #270, .T. ) ;
#30 = ORGANIZATION ( 'UNSPECIFIED', 'UNSPECIFIED', '' ) ;
#31 = ORIENTED_EDGE ( 'NONE', *, *, #92, .T. ) ;
#32 = APPROVAL_PERSON_ORGANIZATION ( #88, #292, #182 ) ;
#33 = CONICAL_SURFACE ( 'NONE', #168, 25.39999999999999900, 0.7298496573999496700 ) ;
#34 = PERSON_AND_ORGANIZATION_ROLE ( 'design_owner' ) ;
#35 = CARTESIAN_POINT ( 'NONE',  ( -3.080192130595159300E-015, -25.15167746928918300, 1.515179820056888900 ) ) ;
#36 = CC_DESIGN_APPROVAL ( #46, ( #65 ) ) ;
#37 = ORIENTED_EDGE ( 'NONE', *, *, #268, .F. ) ;
#38 = DIRECTION ( 'NONE',  ( -0.0000000000000000000, -0.0000000000000000000, 1.000000000000000000 ) ) ;
#39 = AXIS2_PLACEMENT_3D ( 'NONE', #57, #204, #349 ) ;
#40 = ORIENTED_EDGE ( 'NONE', *, *, #251, .F. ) ;
#41 = ORIENTED_EDGE ( 'NONE', *, *, #29, .F. ) ;
#42 = ADVANCED_BREP_SHAPE_REPRESENTATION ( '4336-E0W', ( #22, #173 ), #282 ) ;
#43 = DIRECTION ( 'NONE',  ( 0.0000000000000000000, 0.0000000000000000000, -1.000000000000000000 ) ) ;
#44 = APPROVAL_DATE_TIME ( #356, #116 ) ;
#45 = ORIENTED_EDGE ( 'NONE', *, *, #275, .F. ) ;
#46 = APPROVAL ( #91, 'UNSPECIFIED' ) ;
#47 = AXIS2_PLACEMENT_3D ( 'NONE', #1, #114, #317 ) ;
#48 = CIRCLE ( 'NONE', #131, 25.15167746928910100 ) ;
#49 = CARTESIAN_POINT ( 'NONE',  ( 0.0000000000000000000, 0.0000000000000000000, -1.237614946443643700 ) ) ;
#50 = EDGE_CURVE ( 'NONE', #156, #332, #141, .T. ) ;
#51 = PRODUCT_DEFINITION_SHAPE ( 'NONE', 'NONE',  #130 ) ;
#52 = CARTESIAN_POINT ( 'NONE',  ( 0.0000000000000000000, 1.402832908423293200E-014, 2.899999999999986100 ) ) ;
#53 = VECTOR ( 'NONE', #85, 1000.000000000000000 ) ;
#54 = CARTESIAN_POINT ( 'NONE',  ( 0.0000000000000000000, 0.0000000000000000000, 1.237614946443615900 ) ) ;
#55 = ADVANCED_FACE ( 'NONE', ( #348 ), #181, .T. ) ;
#56 = COORDINATED_UNIVERSAL_TIME_OFFSET ( 5, 0, .BEHIND. ) ;
#57 = CARTESIAN_POINT ( 'NONE',  ( 0.0000000000000000000, 0.0000000000000000000, 2.899999999999999900 ) ) ;
#58 = CC_DESIGN_PERSON_AND_ORGANIZATION_ASSIGNMENT ( #135, #231, ( #351 ) ) ;
#59 = DATE_AND_TIME ( #242, #18 ) ;
#60 = FACE_OUTER_BOUND ( 'NONE', #194, .T. ) ;
#61 = FACE_OUTER_BOUND ( 'NONE', #336, .T. ) ;
#62 = EDGE_CURVE ( 'NONE', #134, #156, #294, .T. ) ;
#63 = DIRECTION ( 'NONE',  ( 0.0000000000000000000, 0.0000000000000000000, -1.000000000000000000 ) ) ;
#64 = DIRECTION ( 'NONE',  ( 0.0000000000000000000, 0.0000000000000000000, -1.000000000000000000 ) ) ;
#65 = PRODUCT_DEFINITION_FORMATION_WITH_SPECIFIED_SOURCE ( 'ANY', '', #236, .NOT_KNOWN. ) ;
#66 = AXIS2_PLACEMENT_3D ( 'NONE', #6, #339, #304 ) ;
#67 = DATE_TIME_ROLE ( 'classification_date' ) ;
#68 = EDGE_LOOP ( 'NONE', ( #24, #228, #41, #277, #8 ) ) ;
#69 = CARTESIAN_POINT ( 'NONE',  ( -25.15167746928918300, 3.095397500214719100E-015, -1.515179820056916600 ) ) ;
#70 = DIRECTION ( 'NONE',  ( 1.000000000000000000, 0.0000000000000000000, 0.0000000000000000000 ) ) ;
#71 = ORIENTED_EDGE ( 'NONE', *, *, #275, .T. ) ;
#72 = EDGE_CURVE ( 'NONE', #162, #324, #243, .T. ) ;
#73 = DIRECTION ( 'NONE',  ( -1.000000000000000000, 0.0000000000000000000, 0.0000000000000000000 ) ) ;
#74 = CYLINDRICAL_SURFACE ( 'NONE', #39, 25.39999999999999900 ) ;
#75 = DIRECTION ( 'NONE',  ( 0.0000000000000000000, 1.000000000000000000, 0.0000000000000000000 ) ) ;
#76 = ORIENTED_EDGE ( 'NONE', *, *, #290, .F. ) ;
#77 = CARTESIAN_POINT ( 'NONE',  ( -25.39999999999999900, 3.110602869834276900E-015, 1.237614946443615900 ) ) ;
#78 = VECTOR ( 'NONE', #195, 1000.000000000000000 ) ;
#79 = CARTESIAN_POINT ( 'NONE',  ( -25.39999999999999900, 3.110602869834276900E-015, -1.237614946443643700 ) ) ;
#80 = CONICAL_SURFACE ( 'NONE', #14, 25.15167746928911900, 0.7298496574000388200 ) ;
#81 = DATE_AND_TIME ( #125, #185 ) ;
#82 = DIRECTION ( 'NONE',  ( 0.0000000000000000000, 0.0000000000000000000, -1.000000000000000000 ) ) ;
#83 = CC_DESIGN_DATE_AND_TIME_ASSIGNMENT ( #255, #219, ( #130 ) ) ;
#84 = AXIS2_PLACEMENT_3D ( 'NONE', #265, #313, #104 ) ;
#85 = DIRECTION ( 'NONE',  ( -0.0000000000000000000, -0.0000000000000000000, 1.000000000000000000 ) ) ;
#86 = ORIENTED_EDGE ( 'NONE', *, *, #363, .T. ) ;
#87 = DIRECTION ( 'NONE',  ( 0.0000000000000000000, 0.0000000000000000000, 1.000000000000000000 ) ) ;
#88 = PERSON_AND_ORGANIZATION ( #132, #30 ) ;
#89 = DIRECTION ( 'NONE',  ( -0.6667575960104539200, 0.0000000000000000000, -0.7452746528377041100 ) ) ;
#90 = CC_DESIGN_SECURITY_CLASSIFICATION ( #351, ( #65 ) ) ;
#91 = APPROVAL_STATUS ( 'not_yet_approved' ) ;
#92 = EDGE_CURVE ( 'NONE', #134, #133, #288, .T. ) ;
#93 = DIRECTION ( 'NONE',  ( -1.000000000000000000, 0.0000000000000000000, 0.0000000000000000000 ) ) ;
#94 = AXIS2_PLACEMENT_3D ( 'NONE', #147, #93, #11 ) ;
#95 = CIRCLE ( 'NONE', #358, 25.39999999999999900 ) ;
#96 = CC_DESIGN_PERSON_AND_ORGANIZATION_ASSIGNMENT ( #364, #361, ( #130 ) ) ;
#97 = COORDINATED_UNIVERSAL_TIME_OFFSET ( 5, 0, .BEHIND. ) ;
#98 = CARTESIAN_POINT ( 'NONE',  ( 25.15167746928911900, 3.080192130595152200E-015, 1.515179820056888900 ) ) ;
#99 = DIRECTION ( 'NONE',  ( -1.000000000000000000, 0.0000000000000000000, 0.0000000000000000000 ) ) ;
#100 = DIRECTION ( 'NONE',  ( -0.0000000000000000000, -0.0000000000000000000, 1.000000000000000000 ) ) ;
#101 = ORIENTED_EDGE ( 'NONE', *, *, #251, .T. ) ;
#102 = EDGE_CURVE ( 'NONE', #139, #133, #307, .T. ) ;
#103 = SECURITY_CLASSIFICATION_LEVEL ( 'unclassified' ) ;
#104 = DIRECTION ( 'NONE',  ( -1.224646799147353200E-016, -1.000000000000000000, 0.0000000000000000000 ) ) ;
#105 = VECTOR ( 'NONE', #233, 1000.000000000000000 ) ;
#106 = CARTESIAN_POINT ( 'NONE',  ( 25.15167746928918300, 0.0000000000000000000, -1.515179820056916600 ) ) ;
#107 = ORIENTED_EDGE ( 'NONE', *, *, #340, .T. ) ;
#108 = DIRECTION ( 'NONE',  ( 1.000000000000000000, -0.0000000000000000000, 0.0000000000000000000 ) ) ;
#109 = DIRECTION ( 'NONE',  ( 1.000000000000000000, 0.0000000000000000000, 0.0000000000000000000 ) ) ;
#110 = CALENDAR_DATE ( 2015, 17, 6 ) ;
#111 = CC_DESIGN_APPROVAL ( #116, ( #130 ) ) ;
#112 = AXIS2_PLACEMENT_3D ( 'NONE', #284, #108, #202 ) ;
#113 = CARTESIAN_POINT ( 'NONE',  ( 0.0000000000000000000, 0.0000000000000000000, -1.237614946443643700 ) ) ;
#114 = DIRECTION ( 'NONE',  ( -0.0000000000000000000, -0.0000000000000000000, 1.000000000000000000 ) ) ;
#115 = DIRECTION ( 'NONE',  ( -1.000000000000000000, 0.0000000000000000000, 0.0000000000000000000 ) ) ;
#116 = APPROVAL ( #21, 'UNSPECIFIED' ) ;
#117 = ORIENTED_EDGE ( 'NONE', *, *, #305, .F. ) ;
#118 = DIRECTION ( 'NONE',  ( 1.000000000000000000, 0.0000000000000000000, 0.0000000000000000000 ) ) ;
#119 = EDGE_CURVE ( 'NONE', #240, #286, #153, .T. ) ;
#120 = ADVANCED_FACE ( 'NONE', ( #60 ), #326, .T. ) ;
#121 = ORIENTED_EDGE ( 'NONE', *, *, #303, .F. ) ;
#122 = CARTESIAN_POINT ( 'NONE',  ( -25.39999999999999900, 3.110602869834276900E-015, 2.899999999999999900 ) ) ;
#123 = DIRECTION ( 'NONE',  ( -1.000000000000000000, 0.0000000000000000000, 0.0000000000000000000 ) ) ;
#124 = EDGE_LOOP ( 'NONE', ( #190, #86, #333, #212 ) ) ;
#125 = CALENDAR_DATE ( 2015, 17, 6 ) ;
#126 = EDGE_CURVE ( 'NONE', #324, #220, #253, .T. ) ;
#127 = ORIENTED_EDGE ( 'NONE', *, *, #92, .F. ) ;
#128 = LOCAL_TIME ( 16, 48, 13.00000000000000000, #152 ) ;
#129 = CARTESIAN_POINT ( 'NONE',  ( 25.39999999999999900, 0.0000000000000000000, 1.237614946443615900 ) ) ;
#130 = PRODUCT_DEFINITION ( 'UNKNOWN', '', #65, #164 ) ;
#131 = AXIS2_PLACEMENT_3D ( 'NONE', #256, #297, #123 ) ;
#132 = PERSON ( 'UNSPECIFIED', 'UNSPECIFIED', 'UNSPECIFIED', ('UNSPECIFIED'), ('UNSPECIFIED'), ('UNSPECIFIED') ) ;
#133 = VERTEX_POINT ( 'NONE', #52 ) ;
#134 = VERTEX_POINT ( 'NONE', #35 ) ;
#135 = PERSON_AND_ORGANIZATION ( #132, #30 ) ;
#136 = CIRCLE ( 'NONE', #47, 25.15167746928910100 ) ;
#137 = CARTESIAN_POINT ( 'NONE',  ( 0.0000000000000000000, 0.0000000000000000000, 1.515179820056888900 ) ) ;
#138 = DIRECTION ( 'NONE',  ( -1.000000000000000000, 0.0000000000000000000, 0.0000000000000000000 ) ) ;
#139 = VERTEX_POINT ( 'NONE', #9 ) ;
#140 = AXIS2_PLACEMENT_3D ( 'NONE', #245, #174, #99 ) ;
#141 = LINE ( 'NONE', #98, #78 ) ;
#142 = EDGE_CURVE ( 'NONE', #281, #286, #215, .T. ) ;
#143 = DIRECTION ( 'NONE',  ( 0.0000000000000000000, 0.0000000000000000000, -1.000000000000000000 ) ) ;
#144 = ORIENTED_EDGE ( 'NONE', *, *, #102, .T. ) ;
#145 = DIRECTION ( 'NONE',  ( 0.0000000000000000000, 1.000000000000000000, 0.0000000000000000000 ) ) ;
#146 = EDGE_LOOP ( 'NONE', ( #177, #235, #157, #76, #252 ) ) ;
#147 = CARTESIAN_POINT ( 'NONE',  ( 0.0000000000000000000, 0.0000000000000000000, 226.2000000000000200 ) ) ;
#148 = VECTOR ( 'NONE', #211, 1000.000000000000000 ) ;
#149 = CC_DESIGN_PERSON_AND_ORGANIZATION_ASSIGNMENT ( #289, #34, ( #236 ) ) ;
#150 = VERTEX_POINT ( 'NONE', #172 ) ;
#151 = ADVANCED_FACE ( 'NONE', ( #273 ), #80, .T. ) ;
#152 = COORDINATED_UNIVERSAL_TIME_OFFSET ( 5, 0, .BEHIND. ) ;
#153 = LINE ( 'NONE', #13, #264 ) ;
#154 = FACE_OUTER_BOUND ( 'NONE', #312, .T. ) ;
#155 = AXIS2_PLACEMENT_3D ( 'NONE', #113, #100, #118 ) ;
#156 = VERTEX_POINT ( 'NONE', #350 ) ;
#157 = ORIENTED_EDGE ( 'NONE', *, *, #161, .F. ) ;
#158 = CARTESIAN_POINT ( 'NONE',  ( 0.0000000000000000000, 0.0000000000000000000, -226.2000000000000200 ) ) ;
#159 = CALENDAR_DATE ( 2015, 17, 6 ) ;
#160 = APPLICATION_CONTEXT ( 'configuration controlled 3d designs of mechanical parts and assemblies' ) ;
#161 = EDGE_CURVE ( 'NONE', #306, #281, #15, .T. ) ;
#162 = VERTEX_POINT ( 'NONE', #334 ) ;
#163 = DIRECTION ( 'NONE',  ( 0.0000000000000000000, 1.000000000000000000, 0.0000000000000000000 ) ) ;
#164 = DESIGN_CONTEXT ( 'detailed design', #160, 'design' ) ;
#165 = CIRCLE ( 'NONE', #320, 25.39999999999999900 ) ;
#166 = APPROVAL_ROLE ( '' ) ;
#167 = SPHERICAL_SURFACE ( 'NONE', #94, 229.0999999999999900 ) ;
#168 = AXIS2_PLACEMENT_3D ( 'NONE', #248, #280, #109 ) ;
#169 = AXIS2_PLACEMENT_3D ( 'NONE', #328, #38, #296 ) ;
#170 = SPHERICAL_SURFACE ( 'NONE', #299, 229.0999999999999900 ) ;
#171 = MECHANICAL_CONTEXT ( 'NONE', #285, 'mechanical' ) ;
#172 = CARTESIAN_POINT ( 'NONE',  ( 0.0000000000000000000, 25.15167746928908000, -1.515179820056916600 ) ) ;
#173 = AXIS2_PLACEMENT_3D ( 'NONE', #188, #87, #23 ) ;
#174 = DIRECTION ( 'NONE',  ( -0.0000000000000000000, -0.0000000000000000000, 1.000000000000000000 ) ) ;
#175 = ADVANCED_FACE ( 'NONE', ( #154 ), #4, .T. ) ;
#176 = FACE_OUTER_BOUND ( 'NONE', #197, .T. ) ;
#177 = ORIENTED_EDGE ( 'NONE', *, *, #340, .F. ) ;
#178 = DATE_AND_TIME ( #110, #128 ) ;
#179 = CARTESIAN_POINT ( 'NONE',  ( 0.0000000000000000000, 0.0000000000000000000, -1.237614946443643700 ) ) ;
#180 = EDGE_CURVE ( 'NONE', #150, #315, #186, .T. ) ;
#181 = CYLINDRICAL_SURFACE ( 'NONE', #206, 25.39999999999999900 ) ;
#182 = APPROVAL_ROLE ( '' ) ;
#183 = ORIENTED_EDGE ( 'NONE', *, *, #119, .F. ) ;
#184 = CIRCLE ( 'NONE', #278, 25.39999999999999900 ) ;
#185 = LOCAL_TIME ( 16, 48, 13.00000000000000000, #217 ) ;
#186 = CIRCLE ( 'NONE', #227, 25.15167746928918300 ) ;
#187 = DIRECTION ( 'NONE',  ( 1.000000000000000000, 0.0000000000000000000, 0.0000000000000000000 ) ) ;
#188 = CARTESIAN_POINT ( 'NONE',  ( 0.0000000000000000000, 0.0000000000000000000, 0.0000000000000000000 ) ) ;
#189 = FACE_OUTER_BOUND ( 'NONE', #124, .T. ) ;
#190 = ORIENTED_EDGE ( 'NONE', *, *, #142, .F. ) ;
#191 = CIRCLE ( 'NONE', #140, 25.15167746928910100 ) ;
#192 = DIRECTION ( 'NONE',  ( -0.0000000000000000000, -0.0000000000000000000, 1.000000000000000000 ) ) ;
#193 = AXIS2_PLACEMENT_3D ( 'NONE', #366, #63, #12 ) ;
#194 = EDGE_LOOP ( 'NONE', ( #127, #17, #101, #144 ) ) ;
#195 = DIRECTION ( 'NONE',  ( 0.6667575960104539200, 8.165425557613864900E-017, -0.7452746528377041100 ) ) ;
#196 = FACE_OUTER_BOUND ( 'NONE', #68, .T. ) ;
#197 = EDGE_LOOP ( 'NONE', ( #209, #257, #31, #310 ) ) ;
#198 = CARTESIAN_POINT ( 'NONE',  ( 0.0000000000000000000, 0.0000000000000000000, -1.515179820056916600 ) ) ;
#199 = ORIENTED_EDGE ( 'NONE', *, *, #142, .T. ) ;
#200 = PERSON_AND_ORGANIZATION ( #132, #30 ) ;
#201 = LINE ( 'NONE', #330, #53 ) ;
#202 = DIRECTION ( 'NONE',  ( 0.0000000000000000000, 0.0000000000000000000, -1.000000000000000000 ) ) ;
#203 = EDGE_CURVE ( 'NONE', #286, #332, #184, .T. ) ;
#204 = DIRECTION ( 'NONE',  ( -0.0000000000000000000, -0.0000000000000000000, 1.000000000000000000 ) ) ;
#205 = DIRECTION ( 'NONE',  ( 1.000000000000000000, 0.0000000000000000000, 0.0000000000000000000 ) ) ;
#206 = AXIS2_PLACEMENT_3D ( 'NONE', #207, #260, #302 ) ;
#207 = CARTESIAN_POINT ( 'NONE',  ( 0.0000000000000000000, 0.0000000000000000000, 2.899999999999999900 ) ) ;
#208 = DIRECTION ( 'NONE',  ( 1.000000000000000000, 0.0000000000000000000, 0.0000000000000000000 ) ) ;
#209 = ORIENTED_EDGE ( 'NONE', *, *, #305, .T. ) ;
#210 = DIRECTION ( 'NONE',  ( 0.0000000000000000000, 0.0000000000000000000, -1.000000000000000000 ) ) ;
#211 = DIRECTION ( 'NONE',  ( -0.6667575960103875300, 8.165425557613051400E-017, 0.7452746528377635100 ) ) ;
#212 = ORIENTED_EDGE ( 'NONE', *, *, #7, .T. ) ;
#213 = DIRECTION ( 'NONE',  ( -1.000000000000000000, 0.0000000000000000000, 0.0000000000000000000 ) ) ;
#214 = APPROVAL_DATE_TIME ( #59, #292 ) ;
#215 = LINE ( 'NONE', #122, #105 ) ;
#216 = CARTESIAN_POINT ( 'NONE',  ( 0.0000000000000000000, 0.0000000000000000000, -1.515179820056916600 ) ) ;
#217 = COORDINATED_UNIVERSAL_TIME_OFFSET ( 5, 0, .BEHIND. ) ;
#218 = DIRECTION ( 'NONE',  ( -1.000000000000000000, 0.0000000000000000000, 0.0000000000000000000 ) ) ;
#219 = DATE_TIME_ROLE ( 'creation_date' ) ;
#220 = VERTEX_POINT ( 'NONE', #69 ) ;
#221 = ORIENTED_EDGE ( 'NONE', *, *, #203, .T. ) ;
#222 = ADVANCED_FACE ( 'NONE', ( #329 ), #167, .T. ) ;
#223 = DIRECTION ( 'NONE',  ( 0.0000000000000000000, 0.0000000000000000000, -1.000000000000000000 ) ) ;
#224 = ORIENTED_EDGE ( 'NONE', *, *, #180, .T. ) ;
#225 = CARTESIAN_POINT ( 'NONE',  ( 0.0000000000000000000, 0.0000000000000000000, -1.515179820056916600 ) ) ;
#226 = APPROVAL_PERSON_ORGANIZATION ( #5, #116, #365 ) ;
#227 = AXIS2_PLACEMENT_3D ( 'NONE', #216, #82, #262 ) ;
#228 = ORIENTED_EDGE ( 'NONE', *, *, #126, .F. ) ;
#229 =( NAMED_UNIT ( * ) SI_UNIT ( $, .STERADIAN. ) SOLID_ANGLE_UNIT ( ) );
#230 = APPROVAL_PERSON_ORGANIZATION ( #239, #46, #166 ) ;
#231 = PERSON_AND_ORGANIZATION_ROLE ( 'classification_officer' ) ;
#232 = CARTESIAN_POINT ( 'NONE',  ( 0.0000000000000000000, 0.0000000000000000000, -226.2000000000000200 ) ) ;
#233 = DIRECTION ( 'NONE',  ( -0.0000000000000000000, -0.0000000000000000000, 1.000000000000000000 ) ) ;
#234 = DIRECTION ( 'NONE',  ( 0.6667575960103875300, 0.0000000000000000000, 0.7452746528377635100 ) ) ;
#235 = ORIENTED_EDGE ( 'NONE', *, *, #322, .T. ) ;
#236 = PRODUCT ( '4336-E0W', '4336-E0W', '', ( #171 ) ) ;
#237 = CARTESIAN_POINT ( 'NONE',  ( 25.39999999999999900, 0.0000000000000000000, -1.237614946443643700 ) ) ;
#238 = APPLICATION_PROTOCOL_DEFINITION ( 'international standard', 'config_control_design', 1994, #160 ) ;
#239 = PERSON_AND_ORGANIZATION ( #132, #30 ) ;
#240 = VERTEX_POINT ( 'NONE', #344 ) ;
#241 = DIRECTION ( 'NONE',  ( 0.0000000000000000000, 0.0000000000000000000, -1.000000000000000000 ) ) ;
#242 = CALENDAR_DATE ( 2015, 17, 6 ) ;
#243 = CIRCLE ( 'NONE', #66, 229.0999999999999900 ) ;
#244 = AXIS2_PLACEMENT_3D ( 'NONE', #355, #208, #210 ) ;
#245 = CARTESIAN_POINT ( 'NONE',  ( 0.0000000000000000000, 0.0000000000000000000, 1.515179820056888900 ) ) ;
#246 = ADVANCED_FACE ( 'NONE', ( #176 ), #27, .T. ) ;
#247 = CARTESIAN_POINT ( 'NONE',  ( -3.080192130595147500E-015, -25.15167746928908000, -1.515179820056916600 ) ) ;
#248 = CARTESIAN_POINT ( 'NONE',  ( 0.0000000000000000000, 0.0000000000000000000, -1.237614946443643700 ) ) ;
#249 = DIRECTION ( 'NONE',  ( -1.000000000000000000, 0.0000000000000000000, 0.0000000000000000000 ) ) ;
#250 = CARTESIAN_POINT ( 'NONE',  ( 0.0000000000000000000, 0.0000000000000000000, 1.237614946443615900 ) ) ;
#251 = EDGE_CURVE ( 'NONE', #156, #139, #48, .T. ) ;
#252 = ORIENTED_EDGE ( 'NONE', *, *, #180, .F. ) ;
#253 = CIRCLE ( 'NONE', #193, 25.15167746928918300 ) ;
#254 = DIRECTION ( 'NONE',  ( 0.0000000000000000000, 0.0000000000000000000, -1.000000000000000000 ) ) ;
#255 = DATE_AND_TIME ( #276, #331 ) ;
#256 = CARTESIAN_POINT ( 'NONE',  ( 0.0000000000000000000, 0.0000000000000000000, 1.515179820056888900 ) ) ;
#257 = ORIENTED_EDGE ( 'NONE', *, *, #303, .T. ) ;
#258 =( LENGTH_UNIT ( ) NAMED_UNIT ( * ) SI_UNIT ( .MILLI., .METRE. ) );
#259 = AXIS2_PLACEMENT_3D ( 'NONE', #158, #73, #75 ) ;
#260 = DIRECTION ( 'NONE',  ( -0.0000000000000000000, -0.0000000000000000000, 1.000000000000000000 ) ) ;
#261 = DIRECTION ( 'NONE',  ( -1.000000000000000000, 0.0000000000000000000, 0.0000000000000000000 ) ) ;
#262 = DIRECTION ( 'NONE',  ( 1.000000000000000000, 0.0000000000000000000, 0.0000000000000000000 ) ) ;
#263 = ORIENTED_EDGE ( 'NONE', *, *, #119, .T. ) ;
#264 = VECTOR ( 'NONE', #89, 1000.000000000000000 ) ;
#265 = CARTESIAN_POINT ( 'NONE',  ( 0.0000000000000000000, 0.0000000000000000000, -226.2000000000000200 ) ) ;
#266 = DIRECTION ( 'NONE',  ( -0.0000000000000000000, -0.0000000000000000000, 1.000000000000000000 ) ) ;
#267 = ADVANCED_FACE ( 'NONE', ( #196 ), #354, .T. ) ;
#268 = EDGE_CURVE ( 'NONE', #306, #332, #201, .T. ) ;
#269 = ORIENTED_EDGE ( 'NONE', *, *, #72, .F. ) ;
#270 = CIRCLE ( 'NONE', #291, 25.15167746928918300 ) ;
#271 = ORIENTED_EDGE ( 'NONE', *, *, #50, .F. ) ;
#272 = APPROVAL_STATUS ( 'not_yet_approved' ) ;
#273 = FACE_OUTER_BOUND ( 'NONE', #319, .T. ) ;
#274 = UNCERTAINTY_MEASURE_WITH_UNIT (LENGTH_MEASURE( 1.000000000000000100E-005 ), #258, 'distance_accuracy_value', 'NONE');
#275 = EDGE_CURVE ( 'NONE', #162, #150, #342, .T. ) ;
#276 = CALENDAR_DATE ( 2015, 17, 6 ) ;
#277 = ORIENTED_EDGE ( 'NONE', *, *, #290, .T. ) ;
#278 = AXIS2_PLACEMENT_3D ( 'NONE', #54, #254, #138 ) ;
#279 = APPROVAL_DATE_TIME ( #81, #46 ) ;
#280 = DIRECTION ( 'NONE',  ( -0.0000000000000000000, -0.0000000000000000000, 1.000000000000000000 ) ) ;
#281 = VERTEX_POINT ( 'NONE', #79 ) ;
#282 =( GEOMETRIC_REPRESENTATION_CONTEXT ( 3 ) GLOBAL_UNCERTAINTY_ASSIGNED_CONTEXT ( ( #274 ) ) GLOBAL_UNIT_ASSIGNED_CONTEXT ( ( #258, #345, #229 ) ) REPRESENTATION_CONTEXT ( 'NONE', 'WORKASPACE' ) );
#283 = SHAPE_DEFINITION_REPRESENTATION ( #51, #42 ) ;
#284 = CARTESIAN_POINT ( 'NONE',  ( 0.0000000000000000000, 0.0000000000000000000, -226.2000000000000200 ) ) ;
#285 = APPLICATION_CONTEXT ( 'configuration controlled 3d designs of mechanical parts and assemblies' ) ;
#286 = VERTEX_POINT ( 'NONE', #77 ) ;
#287 = PERSON_AND_ORGANIZATION_ROLE ( 'design_supplier' ) ;
#288 = CIRCLE ( 'NONE', #84, 229.0999999999999900 ) ;
#289 = PERSON_AND_ORGANIZATION ( #132, #30 ) ;
#290 = EDGE_CURVE ( 'NONE', #315, #306, #337, .T. ) ;
#291 = AXIS2_PLACEMENT_3D ( 'NONE', #198, #43, #187 ) ;
#292 = APPROVAL ( #272, 'UNSPECIFIED' ) ;
#293 = ORIENTED_EDGE ( 'NONE', *, *, #7, .F. ) ;
#294 = CIRCLE ( 'NONE', #169, 25.15167746928910100 ) ;
#295 = FACE_OUTER_BOUND ( 'NONE', #146, .T. ) ;
#296 = DIRECTION ( 'NONE',  ( -1.000000000000000000, 0.0000000000000000000, 0.0000000000000000000 ) ) ;
#297 = DIRECTION ( 'NONE',  ( -0.0000000000000000000, -0.0000000000000000000, 1.000000000000000000 ) ) ;
#298 = COORDINATED_UNIVERSAL_TIME_OFFSET ( 5, 0, .BEHIND. ) ;
#299 = AXIS2_PLACEMENT_3D ( 'NONE', #321, #261, #163 ) ;
#300 = PRODUCT_RELATED_PRODUCT_CATEGORY ( 'detail', '', ( #236 ) ) ;
#301 = ORIENTED_EDGE ( 'NONE', *, *, #72, .T. ) ;
#302 = DIRECTION ( 'NONE',  ( 1.000000000000000000, 0.0000000000000000000, 0.0000000000000000000 ) ) ;
#303 = EDGE_CURVE ( 'NONE', #240, #134, #136, .T. ) ;
#304 = DIRECTION ( 'NONE',  ( -1.224646799147353200E-016, -1.000000000000000000, 0.0000000000000000000 ) ) ;
#305 = EDGE_CURVE ( 'NONE', #139, #240, #191, .T. ) ;
#306 = VERTEX_POINT ( 'NONE', #237 ) ;
#307 = CIRCLE ( 'NONE', #112, 229.1000000000000200 ) ;
#308 = LOCAL_TIME ( 16, 48, 13.00000000000000000, #298 ) ;
#309 = CARTESIAN_POINT ( 'NONE',  ( 25.39999999999999900, 0.0000000000000000000, -1.237614946443643700 ) ) ;
#310 = ORIENTED_EDGE ( 'NONE', *, *, #102, .F. ) ;
#311 = ORIENTED_EDGE ( 'NONE', *, *, #203, .F. ) ;
#312 = EDGE_LOOP ( 'NONE', ( #271, #352, #121, #263, #293 ) ) ;
#313 = DIRECTION ( 'NONE',  ( -1.000000000000000000, 1.224646799147353200E-016, 0.0000000000000000000 ) ) ;
#314 = AXIS2_PLACEMENT_3D ( 'NONE', #16, #223, #213 ) ;
#315 = VERTEX_POINT ( 'NONE', #106 ) ;
#316 = CIRCLE ( 'NONE', #353, 25.15167746928918300 ) ;
#317 = DIRECTION ( 'NONE',  ( -1.000000000000000000, 0.0000000000000000000, 0.0000000000000000000 ) ) ;
#318 = CARTESIAN_POINT ( 'NONE',  ( -25.39999999999999900, 3.110602869834276900E-015, -1.237614946443643700 ) ) ;
#319 = EDGE_LOOP ( 'NONE', ( #40, #325, #311, #183, #117 ) ) ;
#320 = AXIS2_PLACEMENT_3D ( 'NONE', #49, #192, #70 ) ;
#321 = CARTESIAN_POINT ( 'NONE',  ( 0.0000000000000000000, 0.0000000000000000000, 226.2000000000000200 ) ) ;
#322 = EDGE_CURVE ( 'NONE', #220, #281, #327, .T. ) ;
#323 = ADVANCED_FACE ( 'NONE', ( #295 ), #33, .T. ) ;
#324 = VERTEX_POINT ( 'NONE', #247 ) ;
#325 = ORIENTED_EDGE ( 'NONE', *, *, #50, .T. ) ;
#326 = SPHERICAL_SURFACE ( 'NONE', #259, 229.0999999999999900 ) ;
#327 = LINE ( 'NONE', #318, #148 ) ;
#328 = CARTESIAN_POINT ( 'NONE',  ( 0.0000000000000000000, 0.0000000000000000000, 1.515179820056888900 ) ) ;
#329 = FACE_OUTER_BOUND ( 'NONE', #341, .T. ) ;
#330 = CARTESIAN_POINT ( 'NONE',  ( 25.39999999999999900, 0.0000000000000000000, 2.899999999999999900 ) ) ;
#331 = LOCAL_TIME ( 16, 48, 13.00000000000000000, #97 ) ;
#332 = VERTEX_POINT ( 'NONE', #129 ) ;
#333 = ORIENTED_EDGE ( 'NONE', *, *, #268, .T. ) ;
#334 = CARTESIAN_POINT ( 'NONE',  ( 0.0000000000000000000, 1.402832908423293200E-014, -2.899999999999986100 ) ) ;
#335 = AXIS2_PLACEMENT_3D ( 'NONE', #179, #266, #205 ) ;
#336 = EDGE_LOOP ( 'NONE', ( #269, #71, #224, #346 ) ) ;
#337 = LINE ( 'NONE', #309, #19 ) ;
#338 = APPLICATION_PROTOCOL_DEFINITION ( 'international standard', 'config_control_design', 1994, #285 ) ;
#339 = DIRECTION ( 'NONE',  ( -1.000000000000000000, 1.224646799147353200E-016, 0.0000000000000000000 ) ) ;
#340 = EDGE_CURVE ( 'NONE', #220, #150, #316, .T. ) ;
#341 = EDGE_LOOP ( 'NONE', ( #45, #301, #25, #107 ) ) ;
#342 = CIRCLE ( 'NONE', #244, 229.0999999999999900 ) ;
#343 = CC_DESIGN_PERSON_AND_ORGANIZATION_ASSIGNMENT ( #357, #360, ( #65 ) ) ;
#344 = CARTESIAN_POINT ( 'NONE',  ( -25.15167746928910100, 0.0000000000000000000, 1.515179820056888900 ) ) ;
#345 =( NAMED_UNIT ( * ) PLANE_ANGLE_UNIT ( ) SI_UNIT ( $, .RADIAN. ) );
#346 = ORIENTED_EDGE ( 'NONE', *, *, #29, .T. ) ;
#347 = CLOSED_SHELL ( 'NONE', ( #151, #323, #222, #55, #246, #120, #28, #359, #267, #175 ) ) ;
#348 = FACE_OUTER_BOUND ( 'NONE', #367, .T. ) ;
#349 = DIRECTION ( 'NONE',  ( 1.000000000000000000, 0.0000000000000000000, 0.0000000000000000000 ) ) ;
#350 = CARTESIAN_POINT ( 'NONE',  ( 25.15167746928910100, 3.095397500214712800E-015, 1.515179820056888900 ) ) ;
#351 = SECURITY_CLASSIFICATION ( '', '', #103 ) ;
#352 = ORIENTED_EDGE ( 'NONE', *, *, #62, .F. ) ;
#353 = AXIS2_PLACEMENT_3D ( 'NONE', #225, #64, #20 ) ;
#354 = CONICAL_SURFACE ( 'NONE', #155, 25.39999999999999900, 0.7298496573999496700 ) ;
#355 = CARTESIAN_POINT ( 'NONE',  ( 0.0000000000000000000, 0.0000000000000000000, 226.2000000000000200 ) ) ;
#356 = DATE_AND_TIME ( #159, #308 ) ;
#357 = PERSON_AND_ORGANIZATION ( #132, #30 ) ;
#358 = AXIS2_PLACEMENT_3D ( 'NONE', #250, #143, #115 ) ;
#359 = ADVANCED_FACE ( 'NONE', ( #61 ), #170, .T. ) ;
#360 = PERSON_AND_ORGANIZATION_ROLE ( 'creator' ) ;
#361 = PERSON_AND_ORGANIZATION_ROLE ( 'creator' ) ;
#362 = CC_DESIGN_DATE_AND_TIME_ASSIGNMENT ( #178, #67, ( #351 ) ) ;
#363 = EDGE_CURVE ( 'NONE', #281, #306, #165, .T. ) ;
#364 = PERSON_AND_ORGANIZATION ( #132, #30 ) ;
#365 = APPROVAL_ROLE ( '' ) ;
#366 = CARTESIAN_POINT ( 'NONE',  ( 0.0000000000000000000, 0.0000000000000000000, -1.515179820056916600 ) ) ;
#367 = EDGE_LOOP ( 'NONE', ( #10, #199, #221, #37 ) ) ;
ENDSEC;
END-ISO-10303-21;
