ISO-10303-21;
HEADER;
FILE_DESCRIPTION (( 'STEP AP214' ),
    '1' );
FILE_NAME ('4587-E0W.STEP',
    '2009-12-21T17:11:39',
    ( ' ' ),
    ( ' ' ),
    'SwSTEP 2.0',
    'SolidWorks 2009',
    '' );
FILE_SCHEMA (( 'AUTOMOTIVE_DESIGN' ));
ENDSEC;

DATA;
#1 = SURFACE_SIDE_STYLE ('',( #5 ) ) ;
#2 = FACE_OUTER_BOUND ( 'NONE', #124, .T. ) ;
#3 = FILL_AREA_STYLE ('',( #6 ) ) ;
#4 = COLOUR_RGB ( '',0.9568627450980391500, 0.9490196078431372100, 0.9607843137254902200 ) ;
#5 = SURFACE_STYLE_FILL_AREA ( #3 ) ;
#6 = FILL_AREA_STYLE_COLOUR ( '', #4 ) ;
#7 = MECHANICAL_DESIGN_GEOMETRIC_PRESENTATION_REPRESENTATION (  '', ( #9 ), #16 ) ;
#8 = SURFACE_STYLE_USAGE ( .BOTH. , #1 ) ;
#9 = STYLED_ITEM ( 'NONE', ( #11 ), #119 ) ;
#10 = PRESENTATION_LAYER_ASSIGNMENT (  '', '', ( #9 ) ) ;
#11 = PRESENTATION_STYLE_ASSIGNMENT (( #8 ) ) ;
#12 =( LENGTH_UNIT ( ) NAMED_UNIT ( * ) SI_UNIT ( .MILLI., .METRE. ) );
#13 =( NAMED_UNIT ( * ) PLANE_ANGLE_UNIT ( ) SI_UNIT ( $, .RADIAN. ) );
#14 =( NAMED_UNIT ( * ) SI_UNIT ( $, .STERADIAN. ) SOLID_ANGLE_UNIT ( ) );
#15 = UNCERTAINTY_MEASURE_WITH_UNIT (LENGTH_MEASURE( 1.000000000000000100E-005 ), #12, 'distance_accuracy_value', 'NONE');
#16 =( GEOMETRIC_REPRESENTATION_CONTEXT ( 3 ) GLOBAL_UNCERTAINTY_ASSIGNED_CONTEXT ( ( #15 ) ) GLOBAL_UNIT_ASSIGNED_CONTEXT ( ( #12, #13, #14 ) ) REPRESENTATION_CONTEXT ( 'NONE', 'WORKASPACE' ) );
#17 = CARTESIAN_POINT ( 'NONE',  ( 0.0000000000000000000, 5.308843874303775600E-016, -1.445000000000000100 ) ) ;
#18 = DIRECTION ( 'NONE',  ( 0.0000000000000000000, -0.0000000000000000000, 1.000000000000000000 ) ) ;
#19 = AXIS2_PLACEMENT_3D ( 'NONE', #17, #18, #48 ) ;
#20 = PLANE ( 'NONE',  #19 ) ;
#21 = AXIS2_PLACEMENT_3D ( 'NONE', #64, #55, #56 ) ;
#22 =( LENGTH_UNIT ( ) NAMED_UNIT ( * ) SI_UNIT ( .MILLI., .METRE. ) );
#23 = CIRCLE ( 'NONE', #31, 12.69999999999999900 ) ;
#24 = DIRECTION ( 'NONE',  ( -0.0000000000000000000, -0.0000000000000000000, 1.000000000000000000 ) ) ;
#25 = DIRECTION ( 'NONE',  ( 1.000000000000000000, 0.0000000000000000000, 0.0000000000000000000 ) ) ;
#26 = PRESENTATION_LAYER_ASSIGNMENT (  '', '', ( #27 ) ) ;
#27 = STYLED_ITEM ( 'NONE', ( #28 ), #65 ) ;
#28 = PRESENTATION_STYLE_ASSIGNMENT (( #29 ) ) ;
#29 = SURFACE_STYLE_USAGE ( .BOTH. , #30 ) ;
#30 = SURFACE_SIDE_STYLE ('',( #70 ) ) ;
#31 = AXIS2_PLACEMENT_3D ( 'NONE', #40, #45, #68 ) ;
#32 =( NAMED_UNIT ( * ) PLANE_ANGLE_UNIT ( ) SI_UNIT ( $, .RADIAN. ) );
#33 = CARTESIAN_POINT ( 'NONE',  ( 0.0000000000000000000, 0.0000000000000000000, 0.5457508653827344300 ) ) ;
#34 =( LENGTH_UNIT ( ) NAMED_UNIT ( * ) SI_UNIT ( .MILLI., .METRE. ) );
#35 = MECHANICAL_DESIGN_GEOMETRIC_PRESENTATION_REPRESENTATION (  '', ( #27 ), #67 ) ;
#36 = UNCERTAINTY_MEASURE_WITH_UNIT (LENGTH_MEASURE( 1.000000000000000100E-005 ), #34, 'distance_accuracy_value', 'NONE');
#37 = CIRCLE ( 'NONE', #21, 90.12999999999998100 ) ;
#38 = CARTESIAN_POINT ( 'NONE',  ( 0.0000000000000000000, 0.0000000000000000000, -1.445000000000000100 ) ) ;
#39 = CIRCLE ( 'NONE', #59, 12.69999999999999900 ) ;
#40 = CARTESIAN_POINT ( 'NONE',  ( 0.0000000000000000000, 0.0000000000000000000, -1.445000000000000100 ) ) ;
#41 = DIRECTION ( 'NONE',  ( -0.0000000000000000000, -0.0000000000000000000, 1.000000000000000000 ) ) ;
#42 = CARTESIAN_POINT ( 'NONE',  ( -1.555250069354414300E-015, -12.69999999999996200, 0.5457508653827348700 ) ) ;
#43 = UNCERTAINTY_MEASURE_WITH_UNIT (LENGTH_MEASURE( 1.000000000000000100E-005 ), #22, 'distance_accuracy_value', 'NONE');
#44 = CIRCLE ( 'NONE', #58, 90.12999999999998100 ) ;
#45 = DIRECTION ( 'NONE',  ( -0.0000000000000000000, -0.0000000000000000000, 1.000000000000000000 ) ) ;
#46 = DIRECTION ( 'NONE',  ( 1.000000000000000000, 0.0000000000000000000, 0.0000000000000000000 ) ) ;
#47 =( NAMED_UNIT ( * ) PLANE_ANGLE_UNIT ( ) SI_UNIT ( $, .RADIAN. ) );
#48 = DIRECTION ( 'NONE',  ( 1.000000000000000000, 0.0000000000000000000, 0.0000000000000000000 ) ) ;
#49 = DIRECTION ( 'NONE',  ( -1.000000000000000000, 1.224606353822377300E-016, 0.0000000000000000000 ) ) ;
#50 = AXIS2_PLACEMENT_3D ( 'NONE', #60, #66, #62 ) ;
#51 = DIRECTION ( 'NONE',  ( -1.224606353822377300E-016, -1.000000000000000000, 0.0000000000000000000 ) ) ;
#52 = AXIS2_PLACEMENT_3D ( 'NONE', #33, #24, #46 ) ;
#53 =( NAMED_UNIT ( * ) SI_UNIT ( $, .STERADIAN. ) SOLID_ANGLE_UNIT ( ) );
#54 = CARTESIAN_POINT ( 'NONE',  ( 0.0000000000000000000, 0.0000000000000000000, -88.68499999999998800 ) ) ;
#55 = DIRECTION ( 'NONE',  ( 1.000000000000000000, 0.0000000000000000000, 0.0000000000000000000 ) ) ;
#56 = DIRECTION ( 'NONE',  ( 0.0000000000000000000, 0.0000000000000000000, -1.000000000000000000 ) ) ;
#57 =( GEOMETRIC_REPRESENTATION_CONTEXT ( 3 ) GLOBAL_UNCERTAINTY_ASSIGNED_CONTEXT ( ( #43 ) ) GLOBAL_UNIT_ASSIGNED_CONTEXT ( ( #22, #32, #69 ) ) REPRESENTATION_CONTEXT ( 'NONE', 'WORKASPACE' ) );
#58 = AXIS2_PLACEMENT_3D ( 'NONE', #54, #49, #51 ) ;
#59 = AXIS2_PLACEMENT_3D ( 'NONE', #38, #41, #25 ) ;
#60 = CARTESIAN_POINT ( 'NONE',  ( 0.0000000000000000000, 0.0000000000000000000, 0.0000000000000000000 ) ) ;
#61 = CIRCLE ( 'NONE', #52, 12.69999999999999900 ) ;
#62 = DIRECTION ( 'NONE',  ( 1.000000000000000000, 0.0000000000000000000, 0.0000000000000000000 ) ) ;
#63 = CARTESIAN_POINT ( 'NONE',  ( -12.69999999999999900, 1.555250069354419100E-015, -1.445000000000000100 ) ) ;
#64 = CARTESIAN_POINT ( 'NONE',  ( 0.0000000000000000000, 0.0000000000000000000, -88.68499999999998800 ) ) ;
#65 = ADVANCED_BREP_SHAPE_REPRESENTATION ( '4587-E0W', ( #95, #50 ), #57 ) ;
#66 = DIRECTION ( 'NONE',  ( 0.0000000000000000000, 0.0000000000000000000, 1.000000000000000000 ) ) ;
#67 =( GEOMETRIC_REPRESENTATION_CONTEXT ( 3 ) GLOBAL_UNCERTAINTY_ASSIGNED_CONTEXT ( ( #36 ) ) GLOBAL_UNIT_ASSIGNED_CONTEXT ( ( #34, #47, #53 ) ) REPRESENTATION_CONTEXT ( 'NONE', 'WORKASPACE' ) );
#68 = DIRECTION ( 'NONE',  ( 1.000000000000000000, 0.0000000000000000000, 0.0000000000000000000 ) ) ;
#69 =( NAMED_UNIT ( * ) SI_UNIT ( $, .STERADIAN. ) SOLID_ANGLE_UNIT ( ) );
#70 = SURFACE_STYLE_FILL_AREA ( #71 ) ;
#71 = FILL_AREA_STYLE ('',( #72 ) ) ;
#72 = FILL_AREA_STYLE_COLOUR ( '', #73 ) ;
#73 = COLOUR_RGB ( '',0.7960784313725489700, 0.8235294117647058400, 0.9372549019607843100 ) ;
#74 = APPLICATION_PROTOCOL_DEFINITION ( 'draft international standard', 'automotive_design', 1998, #83 ) ;
#75 = PRODUCT_DEFINITION_CONTEXT ( 'detailed design', #83, 'design' ) ;
#76 = APPLICATION_CONTEXT ( 'automotive_design' ) ;
#77 = PRODUCT_DEFINITION_SHAPE ( 'NONE', 'NONE',  #85 ) ;
#78 = PRODUCT_CONTEXT ( 'NONE', #76, 'mechanical' ) ;
#79 = SHAPE_DEFINITION_REPRESENTATION ( #77, #65 ) ;
#80 = PRODUCT_DEFINITION_FORMATION_WITH_SPECIFIED_SOURCE ( 'ANY', '', #84, .NOT_KNOWN. ) ;
#81 = PRODUCT_RELATED_PRODUCT_CATEGORY ( 'part', '', ( #84 ) ) ;
#82 = APPLICATION_PROTOCOL_DEFINITION ( 'draft international standard', 'automotive_design', 1998, #76 ) ;
#83 = APPLICATION_CONTEXT ( 'automotive_design' ) ;
#84 = PRODUCT ( '4587-E0W', '4587-E0W', '', ( #78 ) ) ;
#85 = PRODUCT_DEFINITION ( 'UNKNOWN', '', #80, #75 ) ;
#86 = AXIS2_PLACEMENT_3D ( 'NONE', #89, #93, #92 ) ;
#87 = ORIENTED_EDGE ( 'NONE', *, *, #131, .F. ) ;
#88 = ADVANCED_FACE ( 'NONE', ( #157 ), #146, .T. ) ;
#89 = CARTESIAN_POINT ( 'NONE',  ( 0.0000000000000000000, 0.0000000000000000000, 4.308132045400366600 ) ) ;
#90 = EDGE_CURVE ( 'NONE', #134, #106, #198, .T. ) ;
#91 =( NAMED_UNIT ( * ) SI_UNIT ( $, .STERADIAN. ) SOLID_ANGLE_UNIT ( ) );
#92 = DIRECTION ( 'NONE',  ( 1.000000000000000000, 0.0000000000000000000, 0.0000000000000000000 ) ) ;
#93 = DIRECTION ( 'NONE',  ( -0.0000000000000000000, -0.0000000000000000000, 1.000000000000000000 ) ) ;
#94 = ORIENTED_EDGE ( 'NONE', *, *, #90, .T. ) ;
#95 = MANIFOLD_SOLID_BREP ( 'NONE', #121 ) ;
#96 = UNCERTAINTY_MEASURE_WITH_UNIT (LENGTH_MEASURE( 1.000000000000000100E-005 ), #249, 'distance_accuracy_value', 'NONE');
#97 = ADVANCED_FACE ( 'NONE', ( #202 ), #191, .T. ) ;
#98 = ORIENTED_EDGE ( 'NONE', *, *, #120, .T. ) ;
#99 = VERTEX_POINT ( 'NONE', #192 ) ;
#100 = ORIENTED_EDGE ( 'NONE', *, *, #108, .F. ) ;
#101 = VERTEX_POINT ( 'NONE', #161 ) ;
#102 = ORIENTED_EDGE ( 'NONE', *, *, #120, .F. ) ;
#103 = EDGE_LOOP ( 'NONE', ( #126, #98, #113, #123, #122 ) ) ;
#104 = ORIENTED_EDGE ( 'NONE', *, *, #111, .T. ) ;
#105 = VERTEX_POINT ( 'NONE', #160 ) ;
#106 = VERTEX_POINT ( 'NONE', #159 ) ;
#107 = EDGE_LOOP ( 'NONE', ( #130, #94, #87, #132, #100 ) ) ;
#108 = EDGE_CURVE ( 'NONE', #101, #99, #196, .T. ) ;
#109 = ORIENTED_EDGE ( 'NONE', *, *, #138, .F. ) ;
#110 = VERTEX_POINT ( 'NONE', #177 ) ;
#111 = EDGE_CURVE ( 'NONE', #106, #129, #185, .T. ) ;
#112 = ORIENTED_EDGE ( 'NONE', *, *, #138, .T. ) ;
#113 = ORIENTED_EDGE ( 'NONE', *, *, #108, .T. ) ;
#114 = EDGE_CURVE ( 'NONE', #129, #99, #217, .T. ) ;
#115 = ADVANCED_FACE ( 'NONE', ( #242 ), #241, .T. ) ;
#116 = EDGE_LOOP ( 'NONE', ( #135, #104, #140, #109 ) ) ;
#117 = EDGE_CURVE ( 'NONE', #99, #105, #238, .T. ) ;
#118 = ADVANCED_FACE ( 'NONE', ( #223 ), #257, .T. ) ;
#119 = ADVANCED_FACE ( 'NONE', ( #2 ), #20, .F. ) ;
#120 = EDGE_CURVE ( 'NONE', #134, #101, #23, .T. ) ;
#121 = CLOSED_SHELL ( 'NONE', ( #88, #115, #118, #97, #119 ) ) ;
#122 = ORIENTED_EDGE ( 'NONE', *, *, #111, .F. ) ;
#123 = ORIENTED_EDGE ( 'NONE', *, *, #114, .F. ) ;
#124 = EDGE_LOOP ( 'NONE', ( #127, #102 ) ) ;
#125 = EDGE_CURVE ( 'NONE', #129, #110, #44, .T. ) ;
#126 = ORIENTED_EDGE ( 'NONE', *, *, #90, .F. ) ;
#127 = ORIENTED_EDGE ( 'NONE', *, *, #133, .F. ) ;
#128 = ORIENTED_EDGE ( 'NONE', *, *, #117, .T. ) ;
#129 = VERTEX_POINT ( 'NONE', #42 ) ;
#130 = ORIENTED_EDGE ( 'NONE', *, *, #133, .T. ) ;
#131 = EDGE_CURVE ( 'NONE', #105, #106, #61, .T. ) ;
#132 = ORIENTED_EDGE ( 'NONE', *, *, #117, .F. ) ;
#133 = EDGE_CURVE ( 'NONE', #101, #134, #39, .T. ) ;
#134 = VERTEX_POINT ( 'NONE', #63 ) ;
#135 = ORIENTED_EDGE ( 'NONE', *, *, #131, .T. ) ;
#136 = EDGE_LOOP ( 'NONE', ( #137, #139, #128, #112 ) ) ;
#137 = ORIENTED_EDGE ( 'NONE', *, *, #125, .F. ) ;
#138 = EDGE_CURVE ( 'NONE', #105, #110, #37, .T. ) ;
#139 = ORIENTED_EDGE ( 'NONE', *, *, #114, .T. ) ;
#140 = ORIENTED_EDGE ( 'NONE', *, *, #125, .T. ) ;
#141 = FILL_AREA_STYLE ('',( #142 ) ) ;
#142 = FILL_AREA_STYLE_COLOUR ( '', #156 ) ;
#143 =( LENGTH_UNIT ( ) NAMED_UNIT ( * ) SI_UNIT ( .MILLI., .METRE. ) );
#144 = MECHANICAL_DESIGN_GEOMETRIC_PRESENTATION_REPRESENTATION (  '', ( #148 ), #147 ) ;
#145 = PRESENTATION_LAYER_ASSIGNMENT (  '', '', ( #148 ) ) ;
#146 = CYLINDRICAL_SURFACE ( 'NONE', #86, 12.69999999999999900 ) ;
#147 =( GEOMETRIC_REPRESENTATION_CONTEXT ( 3 ) GLOBAL_UNCERTAINTY_ASSIGNED_CONTEXT ( ( #154 ) ) GLOBAL_UNIT_ASSIGNED_CONTEXT ( ( #143, #158, #155 ) ) REPRESENTATION_CONTEXT ( 'NONE', 'WORKASPACE' ) );
#148 = STYLED_ITEM ( 'NONE', ( #149 ), #88 ) ;
#149 = PRESENTATION_STYLE_ASSIGNMENT (( #150 ) ) ;
#150 = SURFACE_STYLE_USAGE ( .BOTH. , #151 ) ;
#151 = SURFACE_SIDE_STYLE ('',( #152 ) ) ;
#152 = SURFACE_STYLE_FILL_AREA ( #141 ) ;
#153 =( GEOMETRIC_REPRESENTATION_CONTEXT ( 3 ) GLOBAL_UNCERTAINTY_ASSIGNED_CONTEXT ( ( #96 ) ) GLOBAL_UNIT_ASSIGNED_CONTEXT ( ( #249, #248, #91 ) ) REPRESENTATION_CONTEXT ( 'NONE', 'WORKASPACE' ) );
#154 = UNCERTAINTY_MEASURE_WITH_UNIT (LENGTH_MEASURE( 1.000000000000000100E-005 ), #143, 'distance_accuracy_value', 'NONE');
#155 =( NAMED_UNIT ( * ) SI_UNIT ( $, .STERADIAN. ) SOLID_ANGLE_UNIT ( ) );
#156 = COLOUR_RGB ( '',0.9568627450980391500, 0.9490196078431372100, 0.9607843137254902200 ) ;
#157 = FACE_OUTER_BOUND ( 'NONE', #107, .T. ) ;
#158 =( NAMED_UNIT ( * ) PLANE_ANGLE_UNIT ( ) SI_UNIT ( $, .RADIAN. ) );
#159 = CARTESIAN_POINT ( 'NONE',  ( -12.69999999999999900, 1.555250069354419100E-015, 0.5457508653827344300 ) ) ;
#160 = CARTESIAN_POINT ( 'NONE',  ( 0.0000000000000000000, 12.69999999999996200, 0.5457508653827348700 ) ) ;
#161 = CARTESIAN_POINT ( 'NONE',  ( 12.69999999999999900, 0.0000000000000000000, -1.445000000000000100 ) ) ;
#162 = FILL_AREA_STYLE_COLOUR ( '', #165 ) ;
#163 = DIRECTION ( 'NONE',  ( -0.0000000000000000000, -0.0000000000000000000, 1.000000000000000000 ) ) ;
#164 =( NAMED_UNIT ( * ) SI_UNIT ( $, .STERADIAN. ) SOLID_ANGLE_UNIT ( ) );
#165 = COLOUR_RGB ( '',0.7960784313725489700, 0.8235294117647058400, 0.9372549019607843100 ) ;
#166 = SURFACE_STYLE_FILL_AREA ( #172 ) ;
#167 = STYLED_ITEM ( 'NONE', ( #168 ), #97 ) ;
#168 = PRESENTATION_STYLE_ASSIGNMENT (( #169 ) ) ;
#169 = SURFACE_STYLE_USAGE ( .BOTH. , #170 ) ;
#170 = SURFACE_SIDE_STYLE ('',( #187 ) ) ;
#171 =( NAMED_UNIT ( * ) PLANE_ANGLE_UNIT ( ) SI_UNIT ( $, .RADIAN. ) );
#172 = FILL_AREA_STYLE ('',( #162 ) ) ;
#173 = UNCERTAINTY_MEASURE_WITH_UNIT (LENGTH_MEASURE( 1.000000000000000100E-005 ), #201, 'distance_accuracy_value', 'NONE');
#174 = VECTOR ( 'NONE', #163, 1000.000000000000000 ) ;
#175 = PRESENTATION_STYLE_ASSIGNMENT (( #176 ) ) ;
#176 = SURFACE_STYLE_USAGE ( .BOTH. , #186 ) ;
#177 = CARTESIAN_POINT ( 'NONE',  ( 0.0000000000000000000, 5.518688533500541900E-015, 1.445000000000001800 ) ) ;
#178 =( GEOMETRIC_REPRESENTATION_CONTEXT ( 3 ) GLOBAL_UNCERTAINTY_ASSIGNED_CONTEXT ( ( #179 ) ) GLOBAL_UNIT_ASSIGNED_CONTEXT ( ( #199, #171, #164 ) ) REPRESENTATION_CONTEXT ( 'NONE', 'WORKASPACE' ) );
#179 = UNCERTAINTY_MEASURE_WITH_UNIT (LENGTH_MEASURE( 1.000000000000000100E-005 ), #199, 'distance_accuracy_value', 'NONE');
#180 =( NAMED_UNIT ( * ) SI_UNIT ( $, .STERADIAN. ) SOLID_ANGLE_UNIT ( ) );
#181 = DIRECTION ( 'NONE',  ( 1.000000000000000000, 0.0000000000000000000, 0.0000000000000000000 ) ) ;
#182 = DIRECTION ( 'NONE',  ( -0.0000000000000000000, -0.0000000000000000000, 1.000000000000000000 ) ) ;
#183 = CARTESIAN_POINT ( 'NONE',  ( 0.0000000000000000000, 0.0000000000000000000, 0.5457508653827344300 ) ) ;
#184 = AXIS2_PLACEMENT_3D ( 'NONE', #183, #182, #181 ) ;
#185 = CIRCLE ( 'NONE', #184, 12.69999999999999900 ) ;
#186 = SURFACE_SIDE_STYLE ('',( #166 ) ) ;
#187 = SURFACE_STYLE_FILL_AREA ( #188 ) ;
#188 = FILL_AREA_STYLE ('',( #189 ) ) ;
#189 = FILL_AREA_STYLE_COLOUR ( '', #190 ) ;
#190 = COLOUR_RGB ( '',0.9568627450980391500, 0.9490196078431372100, 0.9607843137254902200 ) ;
#191 = CYLINDRICAL_SURFACE ( 'NONE', #210, 12.69999999999999900 ) ;
#192 = CARTESIAN_POINT ( 'NONE',  ( 12.69999999999999900, 0.0000000000000000000, 0.5457508653827344300 ) ) ;
#193 = DIRECTION ( 'NONE',  ( -0.0000000000000000000, -0.0000000000000000000, 1.000000000000000000 ) ) ;
#194 = VECTOR ( 'NONE', #193, 1000.000000000000000 ) ;
#195 = CARTESIAN_POINT ( 'NONE',  ( 12.69999999999999900, 0.0000000000000000000, 4.308132045400366600 ) ) ;
#196 = LINE ( 'NONE', #195, #194 ) ;
#197 = PRESENTATION_LAYER_ASSIGNMENT (  '', '', ( #200 ) ) ;
#198 = LINE ( 'NONE', #212, #174 ) ;
#199 =( LENGTH_UNIT ( ) NAMED_UNIT ( * ) SI_UNIT ( .MILLI., .METRE. ) );
#200 = STYLED_ITEM ( 'NONE', ( #175 ), #95 ) ;
#201 =( LENGTH_UNIT ( ) NAMED_UNIT ( * ) SI_UNIT ( .MILLI., .METRE. ) );
#202 = FACE_OUTER_BOUND ( 'NONE', #103, .T. ) ;
#203 = MECHANICAL_DESIGN_GEOMETRIC_PRESENTATION_REPRESENTATION (  '', ( #167 ), #178 ) ;
#204 = PRESENTATION_LAYER_ASSIGNMENT (  '', '', ( #167 ) ) ;
#205 = MECHANICAL_DESIGN_GEOMETRIC_PRESENTATION_REPRESENTATION (  '', ( #200 ), #206 ) ;
#206 =( GEOMETRIC_REPRESENTATION_CONTEXT ( 3 ) GLOBAL_UNCERTAINTY_ASSIGNED_CONTEXT ( ( #173 ) ) GLOBAL_UNIT_ASSIGNED_CONTEXT ( ( #201, #211, #180 ) ) REPRESENTATION_CONTEXT ( 'NONE', 'WORKASPACE' ) );
#207 = DIRECTION ( 'NONE',  ( 1.000000000000000000, 0.0000000000000000000, 0.0000000000000000000 ) ) ;
#208 = DIRECTION ( 'NONE',  ( -0.0000000000000000000, -0.0000000000000000000, 1.000000000000000000 ) ) ;
#209 = CARTESIAN_POINT ( 'NONE',  ( 0.0000000000000000000, 0.0000000000000000000, 4.308132045400366600 ) ) ;
#210 = AXIS2_PLACEMENT_3D ( 'NONE', #209, #208, #207 ) ;
#211 =( NAMED_UNIT ( * ) PLANE_ANGLE_UNIT ( ) SI_UNIT ( $, .RADIAN. ) );
#212 = CARTESIAN_POINT ( 'NONE',  ( -12.69999999999999900, 1.555250069354419100E-015, 4.308132045400366600 ) ) ;
#213 = DIRECTION ( 'NONE',  ( 1.000000000000000000, 0.0000000000000000000, 0.0000000000000000000 ) ) ;
#214 = DIRECTION ( 'NONE',  ( -0.0000000000000000000, -0.0000000000000000000, 1.000000000000000000 ) ) ;
#215 = CARTESIAN_POINT ( 'NONE',  ( 0.0000000000000000000, 0.0000000000000000000, 0.5457508653827344300 ) ) ;
#216 = AXIS2_PLACEMENT_3D ( 'NONE', #215, #214, #213 ) ;
#217 = CIRCLE ( 'NONE', #216, 12.69999999999999900 ) ;
#218 = UNCERTAINTY_MEASURE_WITH_UNIT (LENGTH_MEASURE( 1.000000000000000100E-005 ), #243, 'distance_accuracy_value', 'NONE');
#219 = FILL_AREA_STYLE ('',( #252 ) ) ;
#220 = DIRECTION ( 'NONE',  ( -0.0000000000000000000, -0.0000000000000000000, 1.000000000000000000 ) ) ;
#221 = CARTESIAN_POINT ( 'NONE',  ( 0.0000000000000000000, 0.0000000000000000000, 0.5457508653827344300 ) ) ;
#222 = AXIS2_PLACEMENT_3D ( 'NONE', #221, #220, #247 ) ;
#223 = FACE_OUTER_BOUND ( 'NONE', #136, .T. ) ;
#224 = PRESENTATION_STYLE_ASSIGNMENT (( #237 ) ) ;
#225 = SURFACE_STYLE_FILL_AREA ( #219 ) ;
#226 = MECHANICAL_DESIGN_GEOMETRIC_PRESENTATION_REPRESENTATION (  '', ( #228 ), #254 ) ;
#227 =( NAMED_UNIT ( * ) PLANE_ANGLE_UNIT ( ) SI_UNIT ( $, .RADIAN. ) );
#228 = STYLED_ITEM ( 'NONE', ( #224 ), #115 ) ;
#229 = DIRECTION ( 'NONE',  ( 0.0000000000000000000, 1.000000000000000000, 0.0000000000000000000 ) ) ;
#230 = DIRECTION ( 'NONE',  ( -1.000000000000000000, 0.0000000000000000000, 0.0000000000000000000 ) ) ;
#231 = CARTESIAN_POINT ( 'NONE',  ( 0.0000000000000000000, 0.0000000000000000000, -88.68499999999998800 ) ) ;
#232 = STYLED_ITEM ( 'NONE', ( #233 ), #118 ) ;
#233 = PRESENTATION_STYLE_ASSIGNMENT (( #234 ) ) ;
#234 = SURFACE_STYLE_USAGE ( .BOTH. , #235 ) ;
#235 = SURFACE_SIDE_STYLE ('',( #236 ) ) ;
#236 = SURFACE_STYLE_FILL_AREA ( #244 ) ;
#237 = SURFACE_STYLE_USAGE ( .BOTH. , #253 ) ;
#238 = CIRCLE ( 'NONE', #222, 12.69999999999999900 ) ;
#239 = AXIS2_PLACEMENT_3D ( 'NONE', #231, #230, #229 ) ;
#240 =( NAMED_UNIT ( * ) SI_UNIT ( $, .STERADIAN. ) SOLID_ANGLE_UNIT ( ) );
#241 = SPHERICAL_SURFACE ( 'NONE', #239, 90.12999999999998100 ) ;
#242 = FACE_OUTER_BOUND ( 'NONE', #116, .T. ) ;
#243 =( LENGTH_UNIT ( ) NAMED_UNIT ( * ) SI_UNIT ( .MILLI., .METRE. ) );
#244 = FILL_AREA_STYLE ('',( #245 ) ) ;
#245 = FILL_AREA_STYLE_COLOUR ( '', #246 ) ;
#246 = COLOUR_RGB ( '',0.9568627450980391500, 0.9490196078431372100, 0.9607843137254902200 ) ;
#247 = DIRECTION ( 'NONE',  ( 1.000000000000000000, 0.0000000000000000000, 0.0000000000000000000 ) ) ;
#248 =( NAMED_UNIT ( * ) PLANE_ANGLE_UNIT ( ) SI_UNIT ( $, .RADIAN. ) );
#249 =( LENGTH_UNIT ( ) NAMED_UNIT ( * ) SI_UNIT ( .MILLI., .METRE. ) );
#250 = MECHANICAL_DESIGN_GEOMETRIC_PRESENTATION_REPRESENTATION (  '', ( #232 ), #153 ) ;
#251 = PRESENTATION_LAYER_ASSIGNMENT (  '', '', ( #232 ) ) ;
#252 = FILL_AREA_STYLE_COLOUR ( '', #256 ) ;
#253 = SURFACE_SIDE_STYLE ('',( #225 ) ) ;
#254 =( GEOMETRIC_REPRESENTATION_CONTEXT ( 3 ) GLOBAL_UNCERTAINTY_ASSIGNED_CONTEXT ( ( #218 ) ) GLOBAL_UNIT_ASSIGNED_CONTEXT ( ( #243, #227, #240 ) ) REPRESENTATION_CONTEXT ( 'NONE', 'WORKASPACE' ) );
#255 = PRESENTATION_LAYER_ASSIGNMENT (  '', '', ( #228 ) ) ;
#256 = COLOUR_RGB ( '',0.9568627450980391500, 0.9490196078431372100, 0.9607843137254902200 ) ;
#257 = SPHERICAL_SURFACE ( 'NONE', #258, 90.12999999999998100 ) ;
#258 = AXIS2_PLACEMENT_3D ( 'NONE', #261, #260, #259 ) ;
#259 = DIRECTION ( 'NONE',  ( 0.0000000000000000000, 1.000000000000000000, 0.0000000000000000000 ) ) ;
#260 = DIRECTION ( 'NONE',  ( -1.000000000000000000, 0.0000000000000000000, 0.0000000000000000000 ) ) ;
#261 = CARTESIAN_POINT ( 'NONE',  ( 0.0000000000000000000, 0.0000000000000000000, -88.68499999999998800 ) ) ;
ENDSEC;
END-ISO-10303-21;
