ISO-10303-21;
HEADER;
FILE_DESCRIPTION (( 'STEP AP203' ),
    '1' );
FILE_NAME ('Web Model 49753.STEP',
    '2017-01-31T15:23:54',
    ( '' ),
    ( '' ),
    'SwSTEP 2.0',
    'SolidWorks 2016',
    '' );
FILE_SCHEMA (( 'CONFIG_CONTROL_DESIGN' ));
ENDSEC;

DATA;
#1 = PERSON_AND_ORGANIZATION ( #180, #112 ) ;
#2 = PERSON_AND_ORGANIZATION ( #180, #112 ) ;
#3 = LINE ( 'NONE', #146, #11 ) ;
#4 = ORIENTED_EDGE ( 'NONE', *, *, #82, .F. ) ;
#5 = PERSON_AND_ORGANIZATION ( #180, #112 ) ;
#6 = LINE ( 'NONE', #18, #193 ) ;
#7 = CALENDAR_DATE ( 2017, 31, 1 ) ;
#8 = FACE_OUTER_BOUND ( 'NONE', #74, .T. ) ;
#9 = VERTEX_POINT ( 'NONE', #118 ) ;
#10 = AXIS2_PLACEMENT_3D ( 'NONE', #32, #31, #58 ) ;
#11 = VECTOR ( 'NONE', #17, 1000.000000000000000 ) ;
#12 = CARTESIAN_POINT ( 'NONE',  ( 3.000000000000000000, 17.50000000000000000, -17.50000000000000000 ) ) ;
#13 = ORIENTED_EDGE ( 'NONE', *, *, #89, .F. ) ;
#14 = CARTESIAN_POINT ( 'NONE',  ( 3.000000000000000000, 17.50000000000000000, 17.50000000000000000 ) ) ;
#15 = PERSON_AND_ORGANIZATION_ROLE ( 'classification_officer' ) ;
#16 = DIRECTION ( 'NONE',  ( 1.000000000000000000, 0.0000000000000000000, 0.0000000000000000000 ) ) ;
#17 = DIRECTION ( 'NONE',  ( -1.000000000000000000, -0.0000000000000000000, -0.0000000000000000000 ) ) ;
#18 = CARTESIAN_POINT ( 'NONE',  ( 3.000000000000000000, 17.50000000000000000, 17.50000000000000000 ) ) ;
#19 = DIRECTION ( 'NONE',  ( 0.0000000000000000000, -1.000000000000000000, 0.0000000000000000000 ) ) ;
#20 = ORIENTED_EDGE ( 'NONE', *, *, #59, .T. ) ;
#21 = APPROVAL ( #176, 'UNSPECIFIED' ) ;
#22 = ORIENTED_EDGE ( 'NONE', *, *, #139, .T. ) ;
#23 = PERSON_AND_ORGANIZATION ( #180, #112 ) ;
#24 = ORIENTED_EDGE ( 'NONE', *, *, #42, .T. ) ;
#25 = CALENDAR_DATE ( 2017, 31, 1 ) ;
#26 = VECTOR ( 'NONE', #165, 1000.000000000000000 ) ;
#27 = EDGE_LOOP ( 'NONE', ( #175, #171, #48, #210 ) ) ;
#28 = DIRECTION ( 'NONE',  ( 0.0000000000000000000, 0.0000000000000000000, -1.000000000000000000 ) ) ;
#29 = LOCAL_TIME ( 10, 23, 54.00000000000000000, #35 ) ;
#30 = EDGE_CURVE ( 'NONE', #56, #127, #170, .T. ) ;
#31 = DIRECTION ( 'NONE',  ( 1.000000000000000000, 0.0000000000000000000, 0.0000000000000000000 ) ) ;
#32 = CARTESIAN_POINT ( 'NONE',  ( 0.0000000000000000000, -17.50000000000000000, 17.50000000000000000 ) ) ;
#33 = AXIS2_PLACEMENT_3D ( 'NONE', #237, #105, #214 ) ;
#34 = CARTESIAN_POINT ( 'NONE',  ( 3.000000000000000000, -17.50000000000000000, 17.50000000000000000 ) ) ;
#35 = COORDINATED_UNIVERSAL_TIME_OFFSET ( 5, 0, .BEHIND. ) ;
#36 = LOCAL_TIME ( 10, 23, 54.00000000000000000, #228 ) ;
#37 = APPROVAL_ROLE ( '' ) ;
#38 = ORIENTED_EDGE ( 'NONE', *, *, #30, .T. ) ;
#39 = PLANE ( 'NONE',  #33 ) ;
#40 = PRODUCT ( 'Web Model 49753', 'Web Model 49753', '', ( #78 ) ) ;
#41 = CALENDAR_DATE ( 2017, 31, 1 ) ;
#42 = EDGE_CURVE ( 'NONE', #110, #108, #80, .T. ) ;
#43 = APPROVAL_DATE_TIME ( #45, #185 ) ;
#44 = ORIENTED_EDGE ( 'NONE', *, *, #139, .F. ) ;
#45 = DATE_AND_TIME ( #92, #36 ) ;
#46 = LOCAL_TIME ( 10, 23, 54.00000000000000000, #109 ) ;
#47 = VECTOR ( 'NONE', #116, 1000.000000000000000 ) ;
#48 = ORIENTED_EDGE ( 'NONE', *, *, #59, .F. ) ;
#49 = CC_DESIGN_APPROVAL ( #21, ( #232 ) ) ;
#50 = PERSON_AND_ORGANIZATION ( #180, #112 ) ;
#51 = ADVANCED_FACE ( 'NONE', ( #203 ), #158, .F. ) ;
#52 = LINE ( 'NONE', #124, #26 ) ;
#53 = CARTESIAN_POINT ( 'NONE',  ( 0.0000000000000000000, -17.50000000000000000, 17.50000000000000000 ) ) ;
#54 = PRODUCT_DEFINITION_SHAPE ( 'NONE', 'NONE',  #75 ) ;
#55 = ORIENTED_EDGE ( 'NONE', *, *, #71, .T. ) ;
#56 = VERTEX_POINT ( 'NONE', #14 ) ;
#57 = UNCERTAINTY_MEASURE_WITH_UNIT (LENGTH_MEASURE( 1.000000000000000100E-005 ), #155, 'distance_accuracy_value', 'NONE');
#58 = DIRECTION ( 'NONE',  ( 0.0000000000000000000, 0.0000000000000000000, -1.000000000000000000 ) ) ;
#59 = EDGE_CURVE ( 'NONE', #66, #56, #221, .T. ) ;
#60 = CARTESIAN_POINT ( 'NONE',  ( 0.0000000000000000000, 17.50000000000000000, 17.50000000000000000 ) ) ;
#61 = PERSON_AND_ORGANIZATION_ROLE ( 'design_supplier' ) ;
#62 = PERSON_AND_ORGANIZATION_ROLE ( 'creator' ) ;
#63 = CARTESIAN_POINT ( 'NONE',  ( 0.0000000000000000000, -17.50000000000000000, -17.50000000000000000 ) ) ;
#64 = APPROVAL_STATUS ( 'not_yet_approved' ) ;
#65 = VECTOR ( 'NONE', #90, 1000.000000000000000 ) ;
#66 = VERTEX_POINT ( 'NONE', #12 ) ;
#67 = CC_DESIGN_PERSON_AND_ORGANIZATION_ASSIGNMENT ( #114, #62, ( #232 ) ) ;
#68 = COORDINATED_UNIVERSAL_TIME_OFFSET ( 5, 0, .BEHIND. ) ;
#69 = VECTOR ( 'NONE', #85, 1000.000000000000000 ) ;
#70 = EDGE_LOOP ( 'NONE', ( #22, #77, #223, #38 ) ) ;
#71 = EDGE_CURVE ( 'NONE', #9, #167, #184, .T. ) ;
#72 = CARTESIAN_POINT ( 'NONE',  ( 3.000000000000000000, 17.50000000000000000, -17.50000000000000000 ) ) ;
#73 = LINE ( 'NONE', #206, #69 ) ;
#74 = EDGE_LOOP ( 'NONE', ( #24, #4, #13, #159 ) ) ;
#75 = PRODUCT_DEFINITION ( 'UNKNOWN', '', #232, #168 ) ;
#76 = CARTESIAN_POINT ( 'NONE',  ( 3.000000000000000000, -17.50000000000000000, -17.50000000000000000 ) ) ;
#77 = ORIENTED_EDGE ( 'NONE', *, *, #71, .F. ) ;
#78 = MECHANICAL_CONTEXT ( 'NONE', #189, 'mechanical' ) ;
#79 = DIRECTION ( 'NONE',  ( 0.0000000000000000000, -0.0000000000000000000, -1.000000000000000000 ) ) ;
#80 = LINE ( 'NONE', #208, #235 ) ;
#81 = ORIENTED_EDGE ( 'NONE', *, *, #95, .F. ) ;
#82 = EDGE_CURVE ( 'NONE', #66, #108, #174, .T. ) ;
#83 = FACE_OUTER_BOUND ( 'NONE', #86, .T. ) ;
#84 = EDGE_LOOP ( 'NONE', ( #204, #217, #166, #55 ) ) ;
#85 = DIRECTION ( 'NONE',  ( -0.0000000000000000000, 1.000000000000000000, -0.0000000000000000000 ) ) ;
#86 = EDGE_LOOP ( 'NONE', ( #186, #133, #94, #20 ) ) ;
#87 = APPLICATION_PROTOCOL_DEFINITION ( 'international standard', 'config_control_design', 1994, #189 ) ;
#88 = CC_DESIGN_SECURITY_CLASSIFICATION ( #190, ( #232 ) ) ;
#89 = EDGE_CURVE ( 'NONE', #130, #66, #73, .T. ) ;
#90 = DIRECTION ( 'NONE',  ( 0.0000000000000000000, -1.000000000000000000, 0.0000000000000000000 ) ) ;
#91 = DATE_AND_TIME ( #96, #201 ) ;
#92 = CALENDAR_DATE ( 2017, 31, 1 ) ;
#93 = APPROVAL_ROLE ( '' ) ;
#94 = ORIENTED_EDGE ( 'NONE', *, *, #89, .T. ) ;
#95 = EDGE_CURVE ( 'NONE', #167, #110, #122, .T. ) ;
#96 = CALENDAR_DATE ( 2017, 31, 1 ) ;
#97 = DIRECTION ( 'NONE',  ( 1.000000000000000000, 0.0000000000000000000, 0.0000000000000000000 ) ) ;
#98 = ADVANCED_FACE ( 'NONE', ( #83 ), #216, .T. ) ;
#99 = VECTOR ( 'NONE', #28, 1000.000000000000000 ) ;
#100 = CARTESIAN_POINT ( 'NONE',  ( 3.000000000000000000, 17.50000000000000000, 17.50000000000000000 ) ) ;
#101 = ORIENTED_EDGE ( 'NONE', *, *, #42, .F. ) ;
#102 = CC_DESIGN_PERSON_AND_ORGANIZATION_ASSIGNMENT ( #192, #61, ( #232 ) ) ;
#103 = CARTESIAN_POINT ( 'NONE',  ( 0.0000000000000000000, 17.50000000000000000, 17.50000000000000000 ) ) ;
#104 = DIRECTION ( 'NONE',  ( 0.0000000000000000000, -0.0000000000000000000, 1.000000000000000000 ) ) ;
#105 = DIRECTION ( 'NONE',  ( 0.0000000000000000000, 0.0000000000000000000, -1.000000000000000000 ) ) ;
#106 = SHAPE_DEFINITION_REPRESENTATION ( #54, #149 ) ;
#107 = VECTOR ( 'NONE', #209, 1000.000000000000000 ) ;
#108 = VERTEX_POINT ( 'NONE', #233 ) ;
#109 = COORDINATED_UNIVERSAL_TIME_OFFSET ( 5, 0, .BEHIND. ) ;
#110 = VERTEX_POINT ( 'NONE', #63 ) ;
#111 = DIRECTION ( 'NONE',  ( -0.0000000000000000000, 0.0000000000000000000, 1.000000000000000000 ) ) ;
#112 = ORGANIZATION ( 'UNSPECIFIED', 'UNSPECIFIED', '' ) ;
#113 = EDGE_CURVE ( 'NONE', #130, #110, #3, .T. ) ;
#114 = PERSON_AND_ORGANIZATION ( #180, #112 ) ;
#115 = VECTOR ( 'NONE', #207, 1000.000000000000000 ) ;
#116 = DIRECTION ( 'NONE',  ( -0.0000000000000000000, -0.0000000000000000000, 1.000000000000000000 ) ) ;
#117 = PRODUCT_RELATED_PRODUCT_CATEGORY ( 'detail', '', ( #40 ) ) ;
#118 = CARTESIAN_POINT ( 'NONE',  ( 3.000000000000000000, -17.50000000000000000, 17.50000000000000000 ) ) ;
#119 = DATE_AND_TIME ( #25, #148 ) ;
#120 = MANIFOLD_SOLID_BREP ( 'Extrude1', #231 ) ;
#121 = PLANE ( 'NONE',  #141 ) ;
#122 = LINE ( 'NONE', #53, #99 ) ;
#123 = CC_DESIGN_APPROVAL ( #150, ( #190 ) ) ;
#124 = CARTESIAN_POINT ( 'NONE',  ( 0.0000000000000000000, 17.50000000000000000, 17.50000000000000000 ) ) ;
#125 = PERSON_AND_ORGANIZATION_ROLE ( 'design_owner' ) ;
#126 = VECTOR ( 'NONE', #182, 1000.000000000000000 ) ;
#127 = VERTEX_POINT ( 'NONE', #103 ) ;
#128 =( GEOMETRIC_REPRESENTATION_CONTEXT ( 3 ) GLOBAL_UNCERTAINTY_ASSIGNED_CONTEXT ( ( #57 ) ) GLOBAL_UNIT_ASSIGNED_CONTEXT ( ( #155, #134, #172 ) ) REPRESENTATION_CONTEXT ( 'NONE', 'WORKASPACE' ) );
#129 = APPROVAL_PERSON_ORGANIZATION ( #5, #150, #37 ) ;
#130 = VERTEX_POINT ( 'NONE', #76 ) ;
#131 = CARTESIAN_POINT ( 'NONE',  ( 3.000000000000000000, 17.50000000000000000, -17.50000000000000000 ) ) ;
#132 = FACE_OUTER_BOUND ( 'NONE', #27, .T. ) ;
#133 = ORIENTED_EDGE ( 'NONE', *, *, #137, .T. ) ;
#134 =( NAMED_UNIT ( * ) PLANE_ANGLE_UNIT ( ) SI_UNIT ( $, .RADIAN. ) );
#135 = ADVANCED_FACE ( 'NONE', ( #197 ), #121, .F. ) ;
#136 = APPROVAL_PERSON_ORGANIZATION ( #1, #185, #220 ) ;
#137 = EDGE_CURVE ( 'NONE', #9, #130, #154, .T. ) ;
#138 = APPROVAL_PERSON_ORGANIZATION ( #2, #21, #93 ) ;
#139 = EDGE_CURVE ( 'NONE', #127, #167, #152, .T. ) ;
#140 = DIRECTION ( 'NONE',  ( -0.0000000000000000000, 1.000000000000000000, -0.0000000000000000000 ) ) ;
#141 = AXIS2_PLACEMENT_3D ( 'NONE', #196, #211, #104 ) ;
#142 = CARTESIAN_POINT ( 'NONE',  ( 3.000000000000000000, 17.50000000000000000, 17.50000000000000000 ) ) ;
#143 = COORDINATED_UNIVERSAL_TIME_OFFSET ( 5, 0, .BEHIND. ) ;
#144 = FACE_OUTER_BOUND ( 'NONE', #70, .T. ) ;
#145 = DIRECTION ( 'NONE',  ( 1.000000000000000000, 0.0000000000000000000, 0.0000000000000000000 ) ) ;
#146 = CARTESIAN_POINT ( 'NONE',  ( 3.000000000000000000, -17.50000000000000000, -17.50000000000000000 ) ) ;
#147 = APPLICATION_PROTOCOL_DEFINITION ( 'international standard', 'config_control_design', 1994, #194 ) ;
#148 = LOCAL_TIME ( 10, 23, 54.00000000000000000, #68 ) ;
#149 = ADVANCED_BREP_SHAPE_REPRESENTATION ( 'Web Model 49753', ( #120, #160 ), #128 ) ;
#150 = APPROVAL ( #198, 'UNSPECIFIED' ) ;
#151 = AXIS2_PLACEMENT_3D ( 'NONE', #142, #213, #79 ) ;
#152 = LINE ( 'NONE', #60, #65 ) ;
#153 = PERSON_AND_ORGANIZATION_ROLE ( 'creator' ) ;
#154 = LINE ( 'NONE', #34, #126 ) ;
#155 =( LENGTH_UNIT ( ) NAMED_UNIT ( * ) SI_UNIT ( .MILLI., .METRE. ) );
#156 = CC_DESIGN_PERSON_AND_ORGANIZATION_ASSIGNMENT ( #188, #125, ( #40 ) ) ;
#157 = PLANE ( 'NONE',  #205 ) ;
#158 = PLANE ( 'NONE',  #10 ) ;
#159 = ORIENTED_EDGE ( 'NONE', *, *, #113, .T. ) ;
#160 = AXIS2_PLACEMENT_3D ( 'NONE', #227, #229, #145 ) ;
#161 = CARTESIAN_POINT ( 'NONE',  ( 0.0000000000000000000, -17.50000000000000000, 17.50000000000000000 ) ) ;
#162 = DATE_TIME_ROLE ( 'classification_date' ) ;
#163 = CARTESIAN_POINT ( 'NONE',  ( 3.000000000000000000, -17.50000000000000000, 17.50000000000000000 ) ) ;
#164 = APPROVAL_DATE_TIME ( #91, #150 ) ;
#165 = DIRECTION ( 'NONE',  ( -0.0000000000000000000, -0.0000000000000000000, 1.000000000000000000 ) ) ;
#166 = ORIENTED_EDGE ( 'NONE', *, *, #137, .F. ) ;
#167 = VERTEX_POINT ( 'NONE', #161 ) ;
#168 = DESIGN_CONTEXT ( 'detailed design', #194, 'design' ) ;
#169 = DATE_AND_TIME ( #41, #46 ) ;
#170 = LINE ( 'NONE', #100, #115 ) ;
#171 = ORIENTED_EDGE ( 'NONE', *, *, #30, .F. ) ;
#172 =( NAMED_UNIT ( * ) SI_UNIT ( $, .STERADIAN. ) SOLID_ANGLE_UNIT ( ) );
#173 = ADVANCED_FACE ( 'NONE', ( #132 ), #236, .F. ) ;
#174 = LINE ( 'NONE', #72, #107 ) ;
#175 = ORIENTED_EDGE ( 'NONE', *, *, #219, .T. ) ;
#176 = APPROVAL_STATUS ( 'not_yet_approved' ) ;
#177 = SECURITY_CLASSIFICATION_LEVEL ( 'unclassified' ) ;
#178 = EDGE_LOOP ( 'NONE', ( #44, #199, #101, #81 ) ) ;
#179 = CARTESIAN_POINT ( 'NONE',  ( 3.000000000000000000, -17.50000000000000000, 17.50000000000000000 ) ) ;
#180 = PERSON ( 'UNSPECIFIED', 'UNSPECIFIED', 'UNSPECIFIED', ('UNSPECIFIED'), ('UNSPECIFIED'), ('UNSPECIFIED') ) ;
#181 = CC_DESIGN_APPROVAL ( #185, ( #75 ) ) ;
#182 = DIRECTION ( 'NONE',  ( 0.0000000000000000000, 0.0000000000000000000, -1.000000000000000000 ) ) ;
#183 = CC_DESIGN_DATE_AND_TIME_ASSIGNMENT ( #119, #162, ( #190 ) ) ;
#184 = LINE ( 'NONE', #179, #195 ) ;
#185 = APPROVAL ( #64, 'UNSPECIFIED' ) ;
#186 = ORIENTED_EDGE ( 'NONE', *, *, #215, .T. ) ;
#187 = DATE_TIME_ROLE ( 'creation_date' ) ;
#188 = PERSON_AND_ORGANIZATION ( #180, #112 ) ;
#189 = APPLICATION_CONTEXT ( 'configuration controlled 3d designs of mechanical parts and assemblies' ) ;
#190 = SECURITY_CLASSIFICATION ( '', '', #177 ) ;
#191 = ADVANCED_FACE ( 'NONE', ( #144 ), #39, .F. ) ;
#192 = PERSON_AND_ORGANIZATION ( #180, #112 ) ;
#193 = VECTOR ( 'NONE', #19, 1000.000000000000000 ) ;
#194 = APPLICATION_CONTEXT ( 'configuration controlled 3d designs of mechanical parts and assemblies' ) ;
#195 = VECTOR ( 'NONE', #230, 1000.000000000000000 ) ;
#196 = CARTESIAN_POINT ( 'NONE',  ( 3.000000000000000000, -17.50000000000000000, 17.50000000000000000 ) ) ;
#197 = FACE_OUTER_BOUND ( 'NONE', #84, .T. ) ;
#198 = APPROVAL_STATUS ( 'not_yet_approved' ) ;
#199 = ORIENTED_EDGE ( 'NONE', *, *, #219, .F. ) ;
#200 = CC_DESIGN_PERSON_AND_ORGANIZATION_ASSIGNMENT ( #23, #15, ( #190 ) ) ;
#201 = LOCAL_TIME ( 10, 23, 54.00000000000000000, #143 ) ;
#202 = DATE_AND_TIME ( #7, #29 ) ;
#203 = FACE_OUTER_BOUND ( 'NONE', #178, .T. ) ;
#204 = ORIENTED_EDGE ( 'NONE', *, *, #95, .T. ) ;
#205 = AXIS2_PLACEMENT_3D ( 'NONE', #131, #111, #97 ) ;
#206 = CARTESIAN_POINT ( 'NONE',  ( 3.000000000000000000, 17.50000000000000000, -17.50000000000000000 ) ) ;
#207 = DIRECTION ( 'NONE',  ( -1.000000000000000000, -0.0000000000000000000, -0.0000000000000000000 ) ) ;
#208 = CARTESIAN_POINT ( 'NONE',  ( 0.0000000000000000000, 17.50000000000000000, -17.50000000000000000 ) ) ;
#209 = DIRECTION ( 'NONE',  ( -1.000000000000000000, -0.0000000000000000000, -0.0000000000000000000 ) ) ;
#210 = ORIENTED_EDGE ( 'NONE', *, *, #82, .T. ) ;
#211 = DIRECTION ( 'NONE',  ( -0.0000000000000000000, 1.000000000000000000, 0.0000000000000000000 ) ) ;
#212 = CC_DESIGN_PERSON_AND_ORGANIZATION_ASSIGNMENT ( #50, #153, ( #75 ) ) ;
#213 = DIRECTION ( 'NONE',  ( 0.0000000000000000000, -1.000000000000000000, 0.0000000000000000000 ) ) ;
#214 = DIRECTION ( 'NONE',  ( -1.000000000000000000, 0.0000000000000000000, -0.0000000000000000000 ) ) ;
#215 = EDGE_CURVE ( 'NONE', #56, #9, #6, .T. ) ;
#216 = PLANE ( 'NONE',  #224 ) ;
#217 = ORIENTED_EDGE ( 'NONE', *, *, #113, .F. ) ;
#218 = CC_DESIGN_DATE_AND_TIME_ASSIGNMENT ( #202, #187, ( #75 ) ) ;
#219 = EDGE_CURVE ( 'NONE', #108, #127, #52, .T. ) ;
#220 = APPROVAL_ROLE ( '' ) ;
#221 = LINE ( 'NONE', #226, #47 ) ;
#222 = APPROVAL_DATE_TIME ( #169, #21 ) ;
#223 = ORIENTED_EDGE ( 'NONE', *, *, #215, .F. ) ;
#224 = AXIS2_PLACEMENT_3D ( 'NONE', #163, #16, #234 ) ;
#225 = ADVANCED_FACE ( 'NONE', ( #8 ), #157, .F. ) ;
#226 = CARTESIAN_POINT ( 'NONE',  ( 3.000000000000000000, 17.50000000000000000, 17.50000000000000000 ) ) ;
#227 = CARTESIAN_POINT ( 'NONE',  ( 0.0000000000000000000, 0.0000000000000000000, 0.0000000000000000000 ) ) ;
#228 = COORDINATED_UNIVERSAL_TIME_OFFSET ( 5, 0, .BEHIND. ) ;
#229 = DIRECTION ( 'NONE',  ( 0.0000000000000000000, 0.0000000000000000000, 1.000000000000000000 ) ) ;
#230 = DIRECTION ( 'NONE',  ( -1.000000000000000000, -0.0000000000000000000, -0.0000000000000000000 ) ) ;
#231 = CLOSED_SHELL ( 'NONE', ( #191, #135, #225, #173, #98, #51 ) ) ;
#232 = PRODUCT_DEFINITION_FORMATION_WITH_SPECIFIED_SOURCE ( 'ANY', '', #40, .NOT_KNOWN. ) ;
#233 = CARTESIAN_POINT ( 'NONE',  ( 0.0000000000000000000, 17.50000000000000000, -17.50000000000000000 ) ) ;
#234 = DIRECTION ( 'NONE',  ( 0.0000000000000000000, 0.0000000000000000000, -1.000000000000000000 ) ) ;
#235 = VECTOR ( 'NONE', #140, 1000.000000000000000 ) ;
#236 = PLANE ( 'NONE',  #151 ) ;
#237 = CARTESIAN_POINT ( 'NONE',  ( 3.000000000000000000, 17.50000000000000000, 17.50000000000000000 ) ) ;
ENDSEC;
END-ISO-10303-21;
