ISO-10303-21;
HEADER;
FILE_DESCRIPTION (( 'STEP AP203' ),
    '1' );
FILE_NAME ('step_35955.step',
    '2017-05-22T20:26:44',
    ( '' ),
    ( '' ),
    'SwSTEP 2.0',
    'SolidWorks 2016',
    '' );
FILE_SCHEMA (( 'CONFIG_CONTROL_DESIGN' ));
ENDSEC;

DATA;
#1 = PLANE ( 'NONE',  #97 ) ;
#2 = CARTESIAN_POINT ( 'NONE',  ( 25.00000000000000000, 24.99999999999999300, 1.000000000000000000 ) ) ;
#3 = DIRECTION ( 'NONE',  ( 6.938893903907228400E-017, -1.000000000000000000, 0.0000000000000000000 ) ) ;
#4 = CC_DESIGN_SECURITY_CLASSIFICATION ( #17, ( #44 ) ) ;
#5 = CC_DESIGN_APPROVAL ( #9, ( #17 ) ) ;
#6 = APPROVAL_DATE_TIME ( #7, #9 ) ;
#7 = DATE_AND_TIME ( #8, #12 ) ;
#8 = CALENDAR_DATE ( 2017, 22, 5 ) ;
#9 = APPROVAL ( #156, 'UNSPECIFIED' ) ;
#10 = CC_DESIGN_DATE_AND_TIME_ASSIGNMENT ( #20, #162, ( #17 ) ) ;
#11 = DIRECTION ( 'NONE',  ( -0.0000000000000000000, -0.0000000000000000000, -1.000000000000000000 ) ) ;
#12 = LOCAL_TIME ( 13, 26, 44.00000000000000000, #13 ) ;
#13 = COORDINATED_UNIVERSAL_TIME_OFFSET ( 7, 0, .BEHIND. ) ;
#14 = APPROVAL_PERSON_ORGANIZATION ( #16, #9, #152 ) ;
#15 = CC_DESIGN_PERSON_AND_ORGANIZATION_ASSIGNMENT ( #27, #163, ( #17 ) ) ;
#16 = PERSON_AND_ORGANIZATION ( #84, #130 ) ;
#17 = SECURITY_CLASSIFICATION ( '', '', #164 ) ;
#18 = DIRECTION ( 'NONE',  ( -0.0000000000000000000, -0.0000000000000000000, -1.000000000000000000 ) ) ;
#19 = CC_DESIGN_PERSON_AND_ORGANIZATION_ASSIGNMENT ( #28, #80, ( #44 ) ) ;
#20 = DATE_AND_TIME ( #22, #23 ) ;
#21 = DIRECTION ( 'NONE',  ( -1.000000000000000000, -6.938893903907228400E-017, 0.0000000000000000000 ) ) ;
#22 = CALENDAR_DATE ( 2017, 22, 5 ) ;
#23 = LOCAL_TIME ( 13, 26, 44.00000000000000000, #26 ) ;
#24 = CC_DESIGN_PERSON_AND_ORGANIZATION_ASSIGNMENT ( #29, #119, ( #44 ) ) ;
#25 = ADVANCED_FACE ( 'NONE', ( #48 ), #40, .T. ) ;
#26 = COORDINATED_UNIVERSAL_TIME_OFFSET ( 7, 0, .BEHIND. ) ;
#27 = PERSON_AND_ORGANIZATION ( #84, #130 ) ;
#28 = PERSON_AND_ORGANIZATION ( #84, #130 ) ;
#29 = PERSON_AND_ORGANIZATION ( #84, #130 ) ;
#30 = APPROVAL_DATE_TIME ( #34, #41 ) ;
#31 = CARTESIAN_POINT ( 'NONE',  ( -24.99999999999999300, -25.00000000000000700, 0.0000000000000000000 ) ) ;
#32 = CC_DESIGN_APPROVAL ( #41, ( #44 ) ) ;
#33 = VERTEX_POINT ( 'NONE', #233 ) ;
#34 = DATE_AND_TIME ( #36, #37 ) ;
#35 = DIRECTION ( 'NONE',  ( -1.000000000000000000, -0.0000000000000000000, -0.0000000000000000000 ) ) ;
#36 = CALENDAR_DATE ( 2017, 22, 5 ) ;
#37 = LOCAL_TIME ( 13, 26, 44.00000000000000000, #222 ) ;
#38 = ORIENTED_EDGE ( 'NONE', *, *, #230, .F. ) ;
#39 = DATE_AND_TIME ( #42, #87 ) ;
#40 = PLANE ( 'NONE',  #229 ) ;
#41 = APPROVAL ( #74, 'UNSPECIFIED' ) ;
#42 = CALENDAR_DATE ( 2017, 22, 5 ) ;
#43 = CARTESIAN_POINT ( 'NONE',  ( -24.99999999999999600, 24.99999999999999300, 1.000000000000000000 ) ) ;
#44 = PRODUCT_DEFINITION_FORMATION_WITH_SPECIFIED_SOURCE ( 'ANY', '', #124, .NOT_KNOWN. ) ;
#45 = CARTESIAN_POINT ( 'NONE',  ( 0.0000000000000000000, 0.0000000000000000000, 1.000000000000000000 ) ) ;
#46 = DATE_AND_TIME ( #149, #91 ) ;
#47 = COORDINATED_UNIVERSAL_TIME_OFFSET ( 7, 0, .BEHIND. ) ;
#48 = FACE_OUTER_BOUND ( 'NONE', #177, .T. ) ;
#49 = CC_DESIGN_DATE_AND_TIME_ASSIGNMENT ( #39, #110, ( #60 ) ) ;
#50 = DIRECTION ( 'NONE',  ( -0.0000000000000000000, -0.0000000000000000000, -1.000000000000000000 ) ) ;
#51 = CC_DESIGN_PERSON_AND_ORGANIZATION_ASSIGNMENT ( #184, #132, ( #60 ) ) ;
#52 = VERTEX_POINT ( 'NONE', #236 ) ;
#53 = CC_DESIGN_APPROVAL ( #56, ( #60 ) ) ;
#54 = ORIENTED_EDGE ( 'NONE', *, *, #227, .T. ) ;
#55 = CARTESIAN_POINT ( 'NONE',  ( -24.99999999999999300, -25.00000000000000700, 1.000000000000000000 ) ) ;
#56 = APPROVAL ( #218, 'UNSPECIFIED' ) ;
#57 = CARTESIAN_POINT ( 'NONE',  ( -24.99999999999999600, 24.99999999999999300, 1.000000000000000000 ) ) ;
#58 = CARTESIAN_POINT ( 'NONE',  ( 25.00000000000000000, 24.99999999999999300, 1.000000000000000000 ) ) ;
#59 = LINE ( 'NONE', #148, #81 ) ;
#60 = PRODUCT_DEFINITION ( 'UNKNOWN', '', #44, #158 ) ;
#61 = CARTESIAN_POINT ( 'NONE',  ( 25.00000000000000400, -25.00000000000000700, 1.000000000000000000 ) ) ;
#62 = APPLICATION_PROTOCOL_DEFINITION ( 'international standard', 'config_control_design', 1994, #178 ) ;
#63 = CC_DESIGN_PERSON_AND_ORGANIZATION_ASSIGNMENT ( #181, #223, ( #124 ) ) ;
#64 = DIRECTION ( 'NONE',  ( 6.938893903907228400E-017, -1.000000000000000000, 0.0000000000000000000 ) ) ;
#65 = CARTESIAN_POINT ( 'NONE',  ( 0.0000000000000000000, 0.0000000000000000000, 0.0000000000000000000 ) ) ;
#66 = AXIS2_PLACEMENT_3D ( 'NONE', #166, #193, #73 ) ;
#67 = DIRECTION ( 'NONE',  ( -0.0000000000000000000, 0.0000000000000000000, 1.000000000000000000 ) ) ;
#68 = FACE_OUTER_BOUND ( 'NONE', #212, .T. ) ;
#69 = VECTOR ( 'NONE', #11, 1000.000000000000000 ) ;
#70 = ADVANCED_FACE ( 'NONE', ( #189 ), #1, .F. ) ;
#71 = EDGE_CURVE ( 'NONE', #199, #52, #59, .T. ) ;
#72 = CARTESIAN_POINT ( 'NONE',  ( 25.00000000000000000, 24.99999999999999300, 1.000000000000000000 ) ) ;
#73 = DIRECTION ( 'NONE',  ( 1.000000000000000000, 0.0000000000000000000, 0.0000000000000000000 ) ) ;
#74 = APPROVAL_STATUS ( 'not_yet_approved' ) ;
#75 = CARTESIAN_POINT ( 'NONE',  ( -24.99999999999999600, 24.99999999999999300, 1.000000000000000000 ) ) ;
#76 = PLANE ( 'NONE',  #100 ) ;
#77 = VECTOR ( 'NONE', #18, 1000.000000000000000 ) ;
#78 = DIRECTION ( 'NONE',  ( 1.000000000000000000, 0.0000000000000000000, 0.0000000000000000000 ) ) ;
#79 = DIRECTION ( 'NONE',  ( -0.0000000000000000000, -0.0000000000000000000, -1.000000000000000000 ) ) ;
#80 = PERSON_AND_ORGANIZATION_ROLE ( 'design_supplier' ) ;
#81 = VECTOR ( 'NONE', #182, 1000.000000000000000 ) ;
#82 = DIRECTION ( 'NONE',  ( 6.938893903907228400E-017, -1.000000000000000000, 0.0000000000000000000 ) ) ;
#83 = EDGE_CURVE ( 'NONE', #157, #207, #140, .T. ) ;
#84 = PERSON ( 'UNSPECIFIED', 'UNSPECIFIED', 'UNSPECIFIED', ('UNSPECIFIED'), ('UNSPECIFIED'), ('UNSPECIFIED') ) ;
#85 = LINE ( 'NONE', #173, #131 ) ;
#86 = APPROVAL_PERSON_ORGANIZATION ( #198, #41, #106 ) ;
#87 = LOCAL_TIME ( 13, 26, 44.00000000000000000, #47 ) ;
#88 =( LENGTH_UNIT ( ) NAMED_UNIT ( * ) SI_UNIT ( .MILLI., .METRE. ) );
#89 = ADVANCED_FACE ( 'NONE', ( #187 ), #120, .F. ) ;
#90 = ORIENTED_EDGE ( 'NONE', *, *, #235, .F. ) ;
#91 = LOCAL_TIME ( 13, 26, 44.00000000000000000, #172 ) ;
#92 = PRODUCT_RELATED_PRODUCT_CATEGORY ( 'detail', '', ( #124 ) ) ;
#93 = DIRECTION ( 'NONE',  ( 1.000000000000000000, 0.0000000000000000000, 0.0000000000000000000 ) ) ;
#94 = CARTESIAN_POINT ( 'NONE',  ( 25.00000000000000400, -25.00000000000000700, 1.000000000000000000 ) ) ;
#95 = VERTEX_POINT ( 'NONE', #141 ) ;
#96 = VECTOR ( 'NONE', #50, 1000.000000000000000 ) ;
#97 = AXIS2_PLACEMENT_3D ( 'NONE', #58, #21, #64 ) ;
#98 = VECTOR ( 'NONE', #79, 1000.000000000000000 ) ;
#99 = ORIENTED_EDGE ( 'NONE', *, *, #71, .T. ) ;
#100 = AXIS2_PLACEMENT_3D ( 'NONE', #65, #67, #93 ) ;
#101 = CARTESIAN_POINT ( 'NONE',  ( 25.00000000000000000, 24.99999999999999300, 0.0000000000000000000 ) ) ;
#102 = ADVANCED_FACE ( 'NONE', ( #147 ), #205, .F. ) ;
#103 = VECTOR ( 'NONE', #116, 1000.000000000000000 ) ;
#104 = LINE ( 'NONE', #61, #96 ) ;
#105 =( GEOMETRIC_REPRESENTATION_CONTEXT ( 3 ) GLOBAL_UNCERTAINTY_ASSIGNED_CONTEXT ( ( #160 ) ) GLOBAL_UNIT_ASSIGNED_CONTEXT ( ( #88, #145, #176 ) ) REPRESENTATION_CONTEXT ( 'NONE', 'WORKASPACE' ) );
#106 = APPROVAL_ROLE ( '' ) ;
#107 = LINE ( 'NONE', #72, #69 ) ;
#108 = CARTESIAN_POINT ( 'NONE',  ( 25.00000000000000000, 24.99999999999999300, 0.0000000000000000000 ) ) ;
#109 = VECTOR ( 'NONE', #82, 1000.000000000000000 ) ;
#110 = DATE_TIME_ROLE ( 'creation_date' ) ;
#111 = DIRECTION ( 'NONE',  ( 0.0000000000000000000, -0.0000000000000000000, -1.000000000000000000 ) ) ;
#112 = DIRECTION ( 'NONE',  ( -6.938893903907228400E-017, 1.000000000000000000, 0.0000000000000000000 ) ) ;
#113 = LINE ( 'NONE', #57, #146 ) ;
#114 = CARTESIAN_POINT ( 'NONE',  ( -24.99999999999999300, -25.00000000000000700, 1.000000000000000000 ) ) ;
#115 = SHAPE_DEFINITION_REPRESENTATION ( #126, #203 ) ;
#116 = DIRECTION ( 'NONE',  ( 1.000000000000000000, 0.0000000000000000000, 0.0000000000000000000 ) ) ;
#117 = AXIS2_PLACEMENT_3D ( 'NONE', #114, #234, #136 ) ;
#118 = LINE ( 'NONE', #192, #109 ) ;
#119 = PERSON_AND_ORGANIZATION_ROLE ( 'creator' ) ;
#120 = PLANE ( 'NONE',  #117 ) ;
#121 = LINE ( 'NONE', #31, #122 ) ;
#122 = VECTOR ( 'NONE', #78, 1000.000000000000000 ) ;
#123 = ADVANCED_FACE ( 'NONE', ( #129 ), #179, .F. ) ;
#124 = PRODUCT ( 'step_35955', 'step_35955', '', ( #225 ) ) ;
#125 = LINE ( 'NONE', #43, #98 ) ;
#126 = PRODUCT_DEFINITION_SHAPE ( 'NONE', 'NONE',  #60 ) ;
#127 = VECTOR ( 'NONE', #165, 1000.000000000000000 ) ;
#128 = LINE ( 'NONE', #55, #77 ) ;
#129 = FACE_OUTER_BOUND ( 'NONE', #190, .T. ) ;
#130 = ORGANIZATION ( 'UNSPECIFIED', 'UNSPECIFIED', '' ) ;
#131 = VECTOR ( 'NONE', #35, 1000.000000000000000 ) ;
#132 = PERSON_AND_ORGANIZATION_ROLE ( 'creator' ) ;
#133 = ADVANCED_FACE ( 'NONE', ( #68 ), #76, .F. ) ;
#134 = VECTOR ( 'NONE', #174, 1000.000000000000000 ) ;
#135 = CARTESIAN_POINT ( 'NONE',  ( -24.99999999999999600, 24.99999999999999300, 0.0000000000000000000 ) ) ;
#136 = DIRECTION ( 'NONE',  ( 0.0000000000000000000, -0.0000000000000000000, 1.000000000000000000 ) ) ;
#137 = LINE ( 'NONE', #2, #134 ) ;
#138 = APPROVAL_ROLE ( '' ) ;
#139 = ORIENTED_EDGE ( 'NONE', *, *, #155, .F. ) ;
#140 = LINE ( 'NONE', #108, #127 ) ;
#141 = CARTESIAN_POINT ( 'NONE',  ( -24.99999999999999300, -25.00000000000000700, 1.000000000000000000 ) ) ;
#142 = ORIENTED_EDGE ( 'NONE', *, *, #237, .T. ) ;
#143 = CARTESIAN_POINT ( 'NONE',  ( -24.99999999999999300, -25.00000000000000700, 1.000000000000000000 ) ) ;
#144 = LINE ( 'NONE', #143, #103 ) ;
#145 =( NAMED_UNIT ( * ) PLANE_ANGLE_UNIT ( ) SI_UNIT ( $, .RADIAN. ) );
#146 = VECTOR ( 'NONE', #3, 1000.000000000000000 ) ;
#147 = FACE_OUTER_BOUND ( 'NONE', #167, .T. ) ;
#148 = CARTESIAN_POINT ( 'NONE',  ( -24.99999999999999600, 24.99999999999999300, 1.000000000000000000 ) ) ;
#149 = CALENDAR_DATE ( 2017, 22, 5 ) ;
#150 = AXIS2_PLACEMENT_3D ( 'NONE', #161, #186, #112 ) ;
#151 = ORIENTED_EDGE ( 'NONE', *, *, #71, .F. ) ;
#152 = APPROVAL_ROLE ( '' ) ;
#153 = MANIFOLD_SOLID_BREP ( 'Boss-Extrude1', #201 ) ;
#154 = PERSON_AND_ORGANIZATION ( #84, #130 ) ;
#155 = EDGE_CURVE ( 'NONE', #228, #199, #137, .T. ) ;
#156 = APPROVAL_STATUS ( 'not_yet_approved' ) ;
#157 = VERTEX_POINT ( 'NONE', #213 ) ;
#158 = DESIGN_CONTEXT ( 'detailed design', #221, 'design' ) ;
#159 = APPROVAL_DATE_TIME ( #46, #56 ) ;
#160 = UNCERTAINTY_MEASURE_WITH_UNIT (LENGTH_MEASURE( 1.000000000000000100E-005 ), #88, 'distance_accuracy_value', 'NONE');
#161 = CARTESIAN_POINT ( 'NONE',  ( -24.99999999999999600, 24.99999999999999300, 1.000000000000000000 ) ) ;
#162 = DATE_TIME_ROLE ( 'classification_date' ) ;
#163 = PERSON_AND_ORGANIZATION_ROLE ( 'classification_officer' ) ;
#164 = SECURITY_CLASSIFICATION_LEVEL ( 'unclassified' ) ;
#165 = DIRECTION ( 'NONE',  ( -6.938893903907228400E-017, 1.000000000000000000, -0.0000000000000000000 ) ) ;
#166 = CARTESIAN_POINT ( 'NONE',  ( 0.0000000000000000000, 0.0000000000000000000, 0.0000000000000000000 ) ) ;
#167 = EDGE_LOOP ( 'NONE', ( #142, #224, #194, #206 ) ) ;
#168 = AXIS2_PLACEMENT_3D ( 'NONE', #75, #183, #111 ) ;
#169 = APPROVAL_PERSON_ORGANIZATION ( #154, #56, #138 ) ;
#170 = ORIENTED_EDGE ( 'NONE', *, *, #83, .F. ) ;
#171 = ORIENTED_EDGE ( 'NONE', *, *, #237, .F. ) ;
#172 = COORDINATED_UNIVERSAL_TIME_OFFSET ( 7, 0, .BEHIND. ) ;
#173 = CARTESIAN_POINT ( 'NONE',  ( -24.99999999999999600, 24.99999999999999300, 0.0000000000000000000 ) ) ;
#174 = DIRECTION ( 'NONE',  ( -6.938893903907228400E-017, 1.000000000000000000, -0.0000000000000000000 ) ) ;
#175 = DIRECTION ( 'NONE',  ( -0.0000000000000000000, 0.0000000000000000000, 1.000000000000000000 ) ) ;
#176 =( NAMED_UNIT ( * ) SI_UNIT ( $, .STERADIAN. ) SOLID_ANGLE_UNIT ( ) );
#177 = EDGE_LOOP ( 'NONE', ( #200, #231, #216, #99 ) ) ;
#178 = APPLICATION_CONTEXT ( 'configuration controlled 3d designs of mechanical parts and assemblies' ) ;
#179 = PLANE ( 'NONE',  #168 ) ;
#180 = EDGE_CURVE ( 'NONE', #207, #196, #85, .T. ) ;
#181 = PERSON_AND_ORGANIZATION ( #84, #130 ) ;
#182 = DIRECTION ( 'NONE',  ( -1.000000000000000000, -0.0000000000000000000, -0.0000000000000000000 ) ) ;
#183 = DIRECTION ( 'NONE',  ( 0.0000000000000000000, -1.000000000000000000, 0.0000000000000000000 ) ) ;
#184 = PERSON_AND_ORGANIZATION ( #84, #130 ) ;
#185 = ORIENTED_EDGE ( 'NONE', *, *, #180, .T. ) ;
#186 = DIRECTION ( 'NONE',  ( 1.000000000000000000, 6.938893903907228400E-017, -0.0000000000000000000 ) ) ;
#187 = FACE_OUTER_BOUND ( 'NONE', #188, .T. ) ;
#188 = EDGE_LOOP ( 'NONE', ( #214, #38, #210, #208 ) ) ;
#189 = FACE_OUTER_BOUND ( 'NONE', #202, .T. ) ;
#190 = EDGE_LOOP ( 'NONE', ( #185, #204, #151, #54 ) ) ;
#191 = ORIENTED_EDGE ( 'NONE', *, *, #83, .T. ) ;
#192 = CARTESIAN_POINT ( 'NONE',  ( -24.99999999999999600, 24.99999999999999300, 0.0000000000000000000 ) ) ;
#193 = DIRECTION ( 'NONE',  ( 0.0000000000000000000, 0.0000000000000000000, 1.000000000000000000 ) ) ;
#194 = ORIENTED_EDGE ( 'NONE', *, *, #209, .F. ) ;
#195 = EDGE_CURVE ( 'NONE', #95, #228, #144, .T. ) ;
#196 = VERTEX_POINT ( 'NONE', #135 ) ;
#197 = ORIENTED_EDGE ( 'NONE', *, *, #227, .F. ) ;
#198 = PERSON_AND_ORGANIZATION ( #84, #130 ) ;
#199 = VERTEX_POINT ( 'NONE', #226 ) ;
#200 = ORIENTED_EDGE ( 'NONE', *, *, #209, .T. ) ;
#201 = CLOSED_SHELL ( 'NONE', ( #102, #89, #70, #123, #25, #133 ) ) ;
#202 = EDGE_LOOP ( 'NONE', ( #191, #197, #139, #215 ) ) ;
#203 = ADVANCED_BREP_SHAPE_REPRESENTATION ( 'step_35955', ( #153, #66 ), #105 ) ;
#204 = ORIENTED_EDGE ( 'NONE', *, *, #232, .F. ) ;
#205 = PLANE ( 'NONE',  #150 ) ;
#206 = ORIENTED_EDGE ( 'NONE', *, *, #232, .T. ) ;
#207 = VERTEX_POINT ( 'NONE', #101 ) ;
#208 = ORIENTED_EDGE ( 'NONE', *, *, #217, .T. ) ;
#209 = EDGE_CURVE ( 'NONE', #52, #95, #113, .T. ) ;
#210 = ORIENTED_EDGE ( 'NONE', *, *, #195, .F. ) ;
#211 = DIRECTION ( 'NONE',  ( 1.000000000000000000, 0.0000000000000000000, 0.0000000000000000000 ) ) ;
#212 = EDGE_LOOP ( 'NONE', ( #171, #220, #170, #90 ) ) ;
#213 = CARTESIAN_POINT ( 'NONE',  ( 25.00000000000000400, -25.00000000000000700, 0.0000000000000000000 ) ) ;
#214 = ORIENTED_EDGE ( 'NONE', *, *, #235, .T. ) ;
#215 = ORIENTED_EDGE ( 'NONE', *, *, #230, .T. ) ;
#216 = ORIENTED_EDGE ( 'NONE', *, *, #155, .T. ) ;
#217 = EDGE_CURVE ( 'NONE', #95, #33, #128, .T. ) ;
#218 = APPROVAL_STATUS ( 'not_yet_approved' ) ;
#219 = APPLICATION_PROTOCOL_DEFINITION ( 'international standard', 'config_control_design', 1994, #221 ) ;
#220 = ORIENTED_EDGE ( 'NONE', *, *, #180, .F. ) ;
#221 = APPLICATION_CONTEXT ( 'configuration controlled 3d designs of mechanical parts and assemblies' ) ;
#222 = COORDINATED_UNIVERSAL_TIME_OFFSET ( 7, 0, .BEHIND. ) ;
#223 = PERSON_AND_ORGANIZATION_ROLE ( 'design_owner' ) ;
#224 = ORIENTED_EDGE ( 'NONE', *, *, #217, .F. ) ;
#225 = MECHANICAL_CONTEXT ( 'NONE', #178, 'mechanical' ) ;
#226 = CARTESIAN_POINT ( 'NONE',  ( 25.00000000000000000, 24.99999999999999300, 1.000000000000000000 ) ) ;
#227 = EDGE_CURVE ( 'NONE', #199, #207, #107, .T. ) ;
#228 = VERTEX_POINT ( 'NONE', #94 ) ;
#229 = AXIS2_PLACEMENT_3D ( 'NONE', #45, #175, #211 ) ;
#230 = EDGE_CURVE ( 'NONE', #228, #157, #104, .T. ) ;
#231 = ORIENTED_EDGE ( 'NONE', *, *, #195, .T. ) ;
#232 = EDGE_CURVE ( 'NONE', #52, #196, #125, .T. ) ;
#233 = CARTESIAN_POINT ( 'NONE',  ( -24.99999999999999300, -25.00000000000000700, 0.0000000000000000000 ) ) ;
#234 = DIRECTION ( 'NONE',  ( 0.0000000000000000000, 1.000000000000000000, 0.0000000000000000000 ) ) ;
#235 = EDGE_CURVE ( 'NONE', #33, #157, #121, .T. ) ;
#236 = CARTESIAN_POINT ( 'NONE',  ( -24.99999999999999600, 24.99999999999999300, 1.000000000000000000 ) ) ;
#237 = EDGE_CURVE ( 'NONE', #196, #33, #118, .T. ) ;
ENDSEC;
END-ISO-10303-21;
