ISO-10303-21;
HEADER;
FILE_DESCRIPTION (( 'STEP AP203' ),
    '1' );
FILE_NAME ('Web Model 89604_89604.step',
    '2019-02-11T14:45:09',
    ( '' ),
    ( '' ),
    'SwSTEP 2.0',
    'SolidWorks 2016',
    '' );
FILE_SCHEMA (( 'CONFIG_CONTROL_DESIGN' ));
ENDSEC;

DATA;
#1 = ADVANCED_FACE ( 'NONE', ( #201 ), #70, .F. ) ;
#2 = PRODUCT_DEFINITION_FORMATION_WITH_SPECIFIED_SOURCE ( 'ANY', '', #64, .NOT_KNOWN. ) ;
#3 = EDGE_LOOP ( 'NONE', ( #186, #41, #216, #144 ) ) ;
#4 = ADVANCED_FACE ( 'NONE', ( #274 ), #208, .F. ) ;
#5 = VERTEX_POINT ( 'NONE', #154 ) ;
#6 = ORIENTED_EDGE ( 'NONE', *, *, #122, .T. ) ;
#7 = SECURITY_CLASSIFICATION ( '', '', #218 ) ;
#8 = CARTESIAN_POINT ( 'NONE',  ( 0.0000000000000000000, 0.0000000000000000000, 12.69999999999999900 ) ) ;
#9 = VECTOR ( 'NONE', #209, 1000.000000000000000 ) ;
#10 = DIRECTION ( 'NONE',  ( 1.000000000000000000, 0.0000000000000000000, 0.0000000000000000000 ) ) ;
#11 = VECTOR ( 'NONE', #152, 1000.000000000000000 ) ;
#12 = CARTESIAN_POINT ( 'NONE',  ( 12.69999999999999900, 0.0000000000000000000, 12.69999999999999900 ) ) ;
#13 = EDGE_CURVE ( 'NONE', #43, #312, #169, .T. ) ;
#14 = MECHANICAL_CONTEXT ( 'NONE', #244, 'mechanical' ) ;
#15 = DIRECTION ( 'NONE',  ( 1.000000000000000000, 0.0000000000000000000, 0.0000000000000000000 ) ) ;
#16 = APPROVAL_ROLE ( '' ) ;
#17 = LINE ( 'NONE', #237, #116 ) ;
#18 = APPROVAL ( #266, 'UNSPECIFIED' ) ;
#19 = COORDINATED_UNIVERSAL_TIME_OFFSET ( 5, 0, .BEHIND. ) ;
#20 = ORIENTED_EDGE ( 'NONE', *, *, #57, .T. ) ;
#21 = CC_DESIGN_DATE_AND_TIME_ASSIGNMENT ( #223, #135, ( #7 ) ) ;
#22 = APPROVAL_PERSON_ORGANIZATION ( #140, #131, #16 ) ;
#23 = CARTESIAN_POINT ( 'NONE',  ( 0.0000000000000000000, 0.0000000000000000000, 12.69999999999999900 ) ) ;
#24 = VECTOR ( 'NONE', #166, 1000.000000000000100 ) ;
#25 = LINE ( 'NONE', #101, #126 ) ;
#26 = EDGE_CURVE ( 'NONE', #243, #124, #301, .T. ) ;
#27 = DATE_AND_TIME ( #159, #252 ) ;
#28 = DATE_AND_TIME ( #265, #81 ) ;
#29 = ORIENTED_EDGE ( 'NONE', *, *, #122, .F. ) ;
#30 = DIRECTION ( 'NONE',  ( 0.7071067811865474600, 0.7071067811865474600, 0.0000000000000000000 ) ) ;
#31 = EDGE_CURVE ( 'NONE', #196, #5, #211, .T. ) ;
#32 = DIRECTION ( 'NONE',  ( 1.000000000000000000, 0.0000000000000000000, 0.0000000000000000000 ) ) ;
#33 = CARTESIAN_POINT ( 'NONE',  ( -12.69999999999999900, 0.0000000000000000000, 12.69999999999999900 ) ) ;
#34 = CARTESIAN_POINT ( 'NONE',  ( 12.69999999999999800, 12.69999999999999800, 12.69999999999999900 ) ) ;
#35 = VECTOR ( 'NONE', #48, 1000.000000000000000 ) ;
#36 = ORIENTED_EDGE ( 'NONE', *, *, #104, .T. ) ;
#37 = APPROVAL_ROLE ( '' ) ;
#38 = AXIS2_PLACEMENT_3D ( 'NONE', #214, #187, #10 ) ;
#39 = PERSON_AND_ORGANIZATION_ROLE ( 'design_owner' ) ;
#40 = LINE ( 'NONE', #193, #137 ) ;
#41 = ORIENTED_EDGE ( 'NONE', *, *, #104, .F. ) ;
#42 = MANIFOLD_SOLID_BREP ( 'Boss-Extrude1', #97 ) ;
#43 = VERTEX_POINT ( 'NONE', #74 ) ;
#44 = EDGE_CURVE ( 'NONE', #5, #127, #25, .T. ) ;
#45 = PERSON_AND_ORGANIZATION ( #118, #220 ) ;
#46 = ADVANCED_FACE ( 'NONE', ( #119 ), #146, .F. ) ;
#47 = VECTOR ( 'NONE', #32, 1000.000000000000000 ) ;
#48 = DIRECTION ( 'NONE',  ( 1.000000000000000000, 0.0000000000000000000, 0.0000000000000000000 ) ) ;
#49 = DIRECTION ( 'NONE',  ( 1.000000000000000000, 0.0000000000000000000, -0.0000000000000000000 ) ) ;
#50 = DIRECTION ( 'NONE',  ( 0.0000000000000000000, -0.0000000000000000000, 1.000000000000000000 ) ) ;
#51 = AXIS2_PLACEMENT_3D ( 'NONE', #268, #316, #198 ) ;
#52 = CARTESIAN_POINT ( 'NONE',  ( -12.69999999999999800, -12.69999999999999800, 12.69999999999999900 ) ) ;
#53 = DIRECTION ( 'NONE',  ( 1.000000000000000000, 0.0000000000000000000, 0.0000000000000000000 ) ) ;
#54 = ORIENTED_EDGE ( 'NONE', *, *, #176, .T. ) ;
#55 = DIRECTION ( 'NONE',  ( 0.0000000000000000000, -1.000000000000000000, 0.0000000000000000000 ) ) ;
#56 = DIRECTION ( 'NONE',  ( -0.0000000000000000000, -0.0000000000000000000, -1.000000000000000000 ) ) ;
#57 = EDGE_CURVE ( 'NONE', #275, #225, #257, .T. ) ;
#58 = DIRECTION ( 'NONE',  ( -0.0000000000000000000, 0.0000000000000000000, 1.000000000000000000 ) ) ;
#59 = ORIENTED_EDGE ( 'NONE', *, *, #66, .T. ) ;
#60 = APPROVAL_ROLE ( '' ) ;
#61 = CARTESIAN_POINT ( 'NONE',  ( -12.69999999999999900, 12.69999999999999900, 12.69999999999999900 ) ) ;
#62 = PERSON_AND_ORGANIZATION ( #118, #220 ) ;
#63 = FACE_OUTER_BOUND ( 'NONE', #202, .T. ) ;
#64 = PRODUCT ( 'Web Model 89604_89604', 'Web Model 89604_89604', '', ( #14 ) ) ;
#65 = EDGE_LOOP ( 'NONE', ( #133, #120, #171, #250 ) ) ;
#66 = EDGE_CURVE ( 'NONE', #243, #312, #315, .T. ) ;
#67 = VECTOR ( 'NONE', #289, 1000.000000000000100 ) ;
#68 = ADVANCED_FACE ( 'NONE', ( #63 ), #105, .F. ) ;
#69 = CARTESIAN_POINT ( 'NONE',  ( 12.69999999999999800, 12.69999999999999800, 12.69999999999999900 ) ) ;
#70 = PLANE ( 'NONE',  #260 ) ;
#71 = VECTOR ( 'NONE', #185, 1000.000000000000000 ) ;
#72 =( GEOMETRIC_REPRESENTATION_CONTEXT ( 3 ) GLOBAL_UNCERTAINTY_ASSIGNED_CONTEXT ( ( #320 ) ) GLOBAL_UNIT_ASSIGNED_CONTEXT ( ( #134, #165, #89 ) ) REPRESENTATION_CONTEXT ( 'NONE', 'WORKASPACE' ) );
#73 = ORIENTED_EDGE ( 'NONE', *, *, #139, .F. ) ;
#74 = CARTESIAN_POINT ( 'NONE',  ( -12.69999999999999800, -12.69999999999999800, 12.69999999999999900 ) ) ;
#75 = CARTESIAN_POINT ( 'NONE',  ( 12.69999999999999800, 12.69999999999999800, -12.69999999999999900 ) ) ;
#76 = PERSON_AND_ORGANIZATION ( #118, #220 ) ;
#77 = ORIENTED_EDGE ( 'NONE', *, *, #26, .T. ) ;
#78 = DIRECTION ( 'NONE',  ( -0.0000000000000000000, 0.0000000000000000000, -1.000000000000000000 ) ) ;
#79 = CARTESIAN_POINT ( 'NONE',  ( -12.69999999999999900, 12.69999999999999900, -12.69999999999999900 ) ) ;
#80 = CC_DESIGN_PERSON_AND_ORGANIZATION_ASSIGNMENT ( #45, #111, ( #2 ) ) ;
#81 = LOCAL_TIME ( 9, 45, 9.000000000000000000, #282 ) ;
#82 = PLANE ( 'NONE',  #129 ) ;
#83 = FACE_OUTER_BOUND ( 'NONE', #267, .T. ) ;
#84 = VECTOR ( 'NONE', #256, 1000.000000000000000 ) ;
#85 = PERSON_AND_ORGANIZATION_ROLE ( 'creator' ) ;
#86 = DIRECTION ( 'NONE',  ( 1.000000000000000000, 0.0000000000000000000, 0.0000000000000000000 ) ) ;
#87 = CALENDAR_DATE ( 2019, 11, 2 ) ;
#88 = DATE_AND_TIME ( #296, #102 ) ;
#89 =( NAMED_UNIT ( * ) SI_UNIT ( $, .STERADIAN. ) SOLID_ANGLE_UNIT ( ) );
#90 = FACE_OUTER_BOUND ( 'NONE', #293, .T. ) ;
#91 = EDGE_CURVE ( 'NONE', #196, #207, #190, .T. ) ;
#92 = PERSON_AND_ORGANIZATION_ROLE ( 'creator' ) ;
#93 = APPROVAL_DATE_TIME ( #27, #18 ) ;
#94 = VECTOR ( 'NONE', #56, 1000.000000000000000 ) ;
#95 = AXIS2_PLACEMENT_3D ( 'NONE', #270, #221, #86 ) ;
#96 = LINE ( 'NONE', #158, #143 ) ;
#97 = CLOSED_SHELL ( 'NONE', ( #254, #1, #46, #142, #183 ) ) ;
#98 = ADVANCED_FACE ( 'NONE', ( #107 ), #313, .T. ) ;
#99 = CARTESIAN_POINT ( 'NONE',  ( -0.0000000000000000000, 12.69999999999999900, -12.69999999999999900 ) ) ;
#100 = ORIENTED_EDGE ( 'NONE', *, *, #157, .T. ) ;
#101 = CARTESIAN_POINT ( 'NONE',  ( 12.69999999999999900, 0.0000000000000000000, -12.69999999999999900 ) ) ;
#102 = LOCAL_TIME ( 9, 45, 9.000000000000000000, #200 ) ;
#103 = LOCAL_TIME ( 9, 45, 9.000000000000000000, #261 ) ;
#104 = EDGE_CURVE ( 'NONE', #225, #124, #17, .T. ) ;
#105 = PLANE ( 'NONE',  #38 ) ;
#106 = CARTESIAN_POINT ( 'NONE',  ( -12.69999999999999800, -12.69999999999999800, -12.69999999999999900 ) ) ;
#107 = FACE_OUTER_BOUND ( 'NONE', #65, .T. ) ;
#108 = CARTESIAN_POINT ( 'NONE',  ( 0.0000000000000000000, -12.69999999999999900, 12.69999999999999900 ) ) ;
#109 = ORIENTED_EDGE ( 'NONE', *, *, #298, .F. ) ;
#110 = CARTESIAN_POINT ( 'NONE',  ( 0.0000000000000000000, 0.0000000000000000000, 12.69999999999999900 ) ) ;
#111 = PERSON_AND_ORGANIZATION_ROLE ( 'design_supplier' ) ;
#112 = EDGE_LOOP ( 'NONE', ( #59, #132, #29, #285 ) ) ;
#113 = APPLICATION_PROTOCOL_DEFINITION ( 'international standard', 'config_control_design', 1994, #197 ) ;
#114 = APPLICATION_PROTOCOL_DEFINITION ( 'international standard', 'config_control_design', 1994, #244 ) ;
#115 = AXIS2_PLACEMENT_3D ( 'NONE', #191, #156, #128 ) ;
#116 = VECTOR ( 'NONE', #236, 1000.000000000000000 ) ;
#117 = CC_DESIGN_PERSON_AND_ORGANIZATION_ASSIGNMENT ( #226, #319, ( #7 ) ) ;
#118 = PERSON ( 'UNSPECIFIED', 'UNSPECIFIED', 'UNSPECIFIED', ('UNSPECIFIED'), ('UNSPECIFIED'), ('UNSPECIFIED') ) ;
#119 = FACE_OUTER_BOUND ( 'NONE', #3, .T. ) ;
#120 = ORIENTED_EDGE ( 'NONE', *, *, #31, .F. ) ;
#121 = AXIS2_PLACEMENT_3D ( 'NONE', #304, #303, #50 ) ;
#122 = EDGE_CURVE ( 'NONE', #275, #43, #276, .T. ) ;
#123 = FACE_OUTER_BOUND ( 'NONE', #247, .T. ) ;
#124 = VERTEX_POINT ( 'NONE', #75 ) ;
#125 = EDGE_CURVE ( 'NONE', #275, #243, #40, .T. ) ;
#126 = VECTOR ( 'NONE', #253, 1000.000000000000000 ) ;
#127 = VERTEX_POINT ( 'NONE', #309 ) ;
#128 = DIRECTION ( 'NONE',  ( 1.000000000000000000, 0.0000000000000000000, 0.0000000000000000000 ) ) ;
#129 = AXIS2_PLACEMENT_3D ( 'NONE', #110, #310, #283 ) ;
#130 = CARTESIAN_POINT ( 'NONE',  ( 12.69999999999999900, -12.69999999999999900, 12.69999999999999900 ) ) ;
#131 = APPROVAL ( #317, 'UNSPECIFIED' ) ;
#132 = ORIENTED_EDGE ( 'NONE', *, *, #13, .F. ) ;
#133 = ORIENTED_EDGE ( 'NONE', *, *, #44, .F. ) ;
#134 =( LENGTH_UNIT ( ) NAMED_UNIT ( * ) SI_UNIT ( .MILLI., .METRE. ) );
#135 = DATE_TIME_ROLE ( 'classification_date' ) ;
#136 = VECTOR ( 'NONE', #205, 1000.000000000000000 ) ;
#137 = VECTOR ( 'NONE', #160, 1000.000000000000000 ) ;
#138 = EDGE_LOOP ( 'NONE', ( #229, #6, #278 ) ) ;
#139 = EDGE_CURVE ( 'NONE', #231, #150, #96, .T. ) ;
#140 = PERSON_AND_ORGANIZATION ( #118, #220 ) ;
#141 = ADVANCED_BREP_SHAPE_REPRESENTATION ( 'Web Model 89604_89604', ( #42, #151, #95 ), #72 ) ;
#142 = ADVANCED_FACE ( 'NONE', ( #178 ), #162, .T. ) ;
#143 = VECTOR ( 'NONE', #262, 1000.000000000000000 ) ;
#144 = ORIENTED_EDGE ( 'NONE', *, *, #13, .T. ) ;
#145 = AXIS2_PLACEMENT_3D ( 'NONE', #12, #235, #78 ) ;
#146 = PLANE ( 'NONE',  #175 ) ;
#147 = CC_DESIGN_PERSON_AND_ORGANIZATION_ASSIGNMENT ( #76, #85, ( #308 ) ) ;
#148 = CARTESIAN_POINT ( 'NONE',  ( -12.69999999999999900, 0.0000000000000000000, 12.69999999999999900 ) ) ;
#149 = ORIENTED_EDGE ( 'NONE', *, *, #199, .F. ) ;
#150 = VERTEX_POINT ( 'NONE', #106 ) ;
#151 = MANIFOLD_SOLID_BREP ( 'Boss-Extrude2', #174 ) ;
#152 = DIRECTION ( 'NONE',  ( 0.0000000000000000000, -1.000000000000000000, 0.0000000000000000000 ) ) ;
#153 = LOCAL_TIME ( 9, 45, 9.000000000000000000, #19 ) ;
#154 = CARTESIAN_POINT ( 'NONE',  ( 12.69999999999999800, 12.69999999999999800, -12.69999999999999900 ) ) ;
#155 = APPROVAL_DATE_TIME ( #234, #164 ) ;
#156 = DIRECTION ( 'NONE',  ( -0.0000000000000000000, 0.0000000000000000000, 1.000000000000000000 ) ) ;
#157 = EDGE_CURVE ( 'NONE', #231, #207, #173, .T. ) ;
#158 = CARTESIAN_POINT ( 'NONE',  ( -12.69999999999999800, -12.69999999999999800, 12.69999999999999900 ) ) ;
#159 = CALENDAR_DATE ( 2019, 11, 2 ) ;
#160 = DIRECTION ( 'NONE',  ( -0.0000000000000000000, -0.0000000000000000000, -1.000000000000000000 ) ) ;
#161 = VECTOR ( 'NONE', #55, 1000.000000000000000 ) ;
#162 = PLANE ( 'NONE',  #115 ) ;
#163 = PLANE ( 'NONE',  #228 ) ;
#164 = APPROVAL ( #168, 'UNSPECIFIED' ) ;
#165 =( NAMED_UNIT ( * ) PLANE_ANGLE_UNIT ( ) SI_UNIT ( $, .RADIAN. ) );
#166 = DIRECTION ( 'NONE',  ( 0.7071067811865474600, 0.7071067811865474600, 0.0000000000000000000 ) ) ;
#167 = ORIENTED_EDGE ( 'NONE', *, *, #125, .F. ) ;
#168 = APPROVAL_STATUS ( 'not_yet_approved' ) ;
#169 = LINE ( 'NONE', #300, #71 ) ;
#170 = CC_DESIGN_APPROVAL ( #131, ( #7 ) ) ;
#171 = ORIENTED_EDGE ( 'NONE', *, *, #91, .T. ) ;
#172 = PRODUCT_RELATED_PRODUCT_CATEGORY ( 'detail', '', ( #64 ) ) ;
#173 = LINE ( 'NONE', #108, #47 ) ;
#174 = CLOSED_SHELL ( 'NONE', ( #98, #203, #4, #302, #68 ) ) ;
#175 = AXIS2_PLACEMENT_3D ( 'NONE', #23, #255, #279 ) ;
#176 = EDGE_CURVE ( 'NONE', #150, #127, #246, .T. ) ;
#177 = COORDINATED_UNIVERSAL_TIME_OFFSET ( 5, 0, .BEHIND. ) ;
#178 = FACE_OUTER_BOUND ( 'NONE', #138, .T. ) ;
#179 = ORIENTED_EDGE ( 'NONE', *, *, #298, .T. ) ;
#180 = DIRECTION ( 'NONE',  ( -0.0000000000000000000, 0.0000000000000000000, -1.000000000000000000 ) ) ;
#181 = ORIENTED_EDGE ( 'NONE', *, *, #66, .F. ) ;
#182 = CARTESIAN_POINT ( 'NONE',  ( 0.0000000000000000000, 12.69999999999999900, 12.69999999999999900 ) ) ;
#183 = ADVANCED_FACE ( 'NONE', ( #90 ), #189, .F. ) ;
#184 = CC_DESIGN_APPROVAL ( #164, ( #308 ) ) ;
#185 = DIRECTION ( 'NONE',  ( -0.0000000000000000000, -0.0000000000000000000, -1.000000000000000000 ) ) ;
#186 = ORIENTED_EDGE ( 'NONE', *, *, #245, .T. ) ;
#187 = DIRECTION ( 'NONE',  ( -0.0000000000000000000, 0.0000000000000000000, 1.000000000000000000 ) ) ;
#188 = CARTESIAN_POINT ( 'NONE',  ( 0.0000000000000000000, 0.0000000000000000000, -12.69999999999999900 ) ) ;
#189 = PLANE ( 'NONE',  #249 ) ;
#190 = LINE ( 'NONE', #263, #9 ) ;
#191 = CARTESIAN_POINT ( 'NONE',  ( 0.0000000000000000000, 0.0000000000000000000, 12.69999999999999900 ) ) ;
#192 = ORIENTED_EDGE ( 'NONE', *, *, #176, .F. ) ;
#193 = CARTESIAN_POINT ( 'NONE',  ( -12.69999999999999900, 12.69999999999999900, 12.69999999999999900 ) ) ;
#194 = CC_DESIGN_SECURITY_CLASSIFICATION ( #7, ( #2 ) ) ;
#195 = ORIENTED_EDGE ( 'NONE', *, *, #31, .T. ) ;
#196 = VERTEX_POINT ( 'NONE', #34 ) ;
#197 = APPLICATION_CONTEXT ( 'configuration controlled 3d designs of mechanical parts and assemblies' ) ;
#198 = DIRECTION ( 'NONE',  ( 0.0000000000000000000, -0.0000000000000000000, 1.000000000000000000 ) ) ;
#199 = EDGE_CURVE ( 'NONE', #207, #127, #210, .T. ) ;
#200 = COORDINATED_UNIVERSAL_TIME_OFFSET ( 5, 0, .BEHIND. ) ;
#201 = FACE_OUTER_BOUND ( 'NONE', #112, .T. ) ;
#202 = EDGE_LOOP ( 'NONE', ( #306, #192, #179 ) ) ;
#203 = ADVANCED_FACE ( 'NONE', ( #83 ), #82, .T. ) ;
#204 = LINE ( 'NONE', #284, #24 ) ;
#205 = DIRECTION ( 'NONE',  ( 1.000000000000000000, 0.0000000000000000000, 0.0000000000000000000 ) ) ;
#206 = FACE_OUTER_BOUND ( 'NONE', #321, .T. ) ;
#207 = VERTEX_POINT ( 'NONE', #281 ) ;
#208 = PLANE ( 'NONE',  #121 ) ;
#209 = DIRECTION ( 'NONE',  ( 0.0000000000000000000, -1.000000000000000000, 0.0000000000000000000 ) ) ;
#210 = LINE ( 'NONE', #130, #94 ) ;
#211 = LINE ( 'NONE', #69, #84 ) ;
#212 = EDGE_CURVE ( 'NONE', #43, #225, #311, .T. ) ;
#213 = DIRECTION ( 'NONE',  ( -0.0000000000000000000, 0.0000000000000000000, 1.000000000000000000 ) ) ;
#214 = CARTESIAN_POINT ( 'NONE',  ( 0.0000000000000000000, 0.0000000000000000000, -12.69999999999999900 ) ) ;
#215 = VECTOR ( 'NONE', #241, 1000.000000000000100 ) ;
#216 = ORIENTED_EDGE ( 'NONE', *, *, #212, .F. ) ;
#217 = CC_DESIGN_DATE_AND_TIME_ASSIGNMENT ( #88, #290, ( #308 ) ) ;
#218 = SECURITY_CLASSIFICATION_LEVEL ( 'unclassified' ) ;
#219 = CARTESIAN_POINT ( 'NONE',  ( 0.0000000000000000000, 0.0000000000000000000, -12.69999999999999900 ) ) ;
#220 = ORGANIZATION ( 'UNSPECIFIED', 'UNSPECIFIED', '' ) ;
#221 = DIRECTION ( 'NONE',  ( 0.0000000000000000000, 0.0000000000000000000, 1.000000000000000000 ) ) ;
#222 = DESIGN_CONTEXT ( 'detailed design', #197, 'design' ) ;
#223 = DATE_AND_TIME ( #87, #153 ) ;
#224 = LINE ( 'NONE', #219, #215 ) ;
#225 = VERTEX_POINT ( 'NONE', #307 ) ;
#226 = PERSON_AND_ORGANIZATION ( #118, #220 ) ;
#227 = VECTOR ( 'NONE', #259, 1000.000000000000000 ) ;
#228 = AXIS2_PLACEMENT_3D ( 'NONE', #240, #58, #15 ) ;
#229 = ORIENTED_EDGE ( 'NONE', *, *, #57, .F. ) ;
#230 = APPROVAL_PERSON_ORGANIZATION ( #62, #164, #60 ) ;
#231 = VERTEX_POINT ( 'NONE', #52 ) ;
#232 = CARTESIAN_POINT ( 'NONE',  ( -12.69999999999999900, 0.0000000000000000000, -12.69999999999999900 ) ) ;
#233 = CC_DESIGN_APPROVAL ( #18, ( #2 ) ) ;
#234 = DATE_AND_TIME ( #297, #103 ) ;
#235 = DIRECTION ( 'NONE',  ( 1.000000000000000000, 0.0000000000000000000, -0.0000000000000000000 ) ) ;
#236 = DIRECTION ( 'NONE',  ( -0.0000000000000000000, -0.0000000000000000000, -1.000000000000000000 ) ) ;
#237 = CARTESIAN_POINT ( 'NONE',  ( 12.69999999999999800, 12.69999999999999800, 12.69999999999999900 ) ) ;
#238 = ORIENTED_EDGE ( 'NONE', *, *, #280, .F. ) ;
#239 = EDGE_LOOP ( 'NONE', ( #54, #149, #258, #248 ) ) ;
#240 = CARTESIAN_POINT ( 'NONE',  ( 0.0000000000000000000, 0.0000000000000000000, 12.69999999999999900 ) ) ;
#241 = DIRECTION ( 'NONE',  ( 0.7071067811865474600, 0.7071067811865474600, 0.0000000000000000000 ) ) ;
#242 = PRODUCT_DEFINITION_SHAPE ( 'NONE', 'NONE',  #308 ) ;
#243 = VERTEX_POINT ( 'NONE', #79 ) ;
#244 = APPLICATION_CONTEXT ( 'configuration controlled 3d designs of mechanical parts and assemblies' ) ;
#245 = EDGE_CURVE ( 'NONE', #312, #124, #204, .T. ) ;
#246 = LINE ( 'NONE', #264, #227 ) ;
#247 = EDGE_LOOP ( 'NONE', ( #305, #238, #100 ) ) ;
#248 = ORIENTED_EDGE ( 'NONE', *, *, #139, .T. ) ;
#249 = AXIS2_PLACEMENT_3D ( 'NONE', #188, #213, #53 ) ;
#250 = ORIENTED_EDGE ( 'NONE', *, *, #199, .T. ) ;
#251 = ORIENTED_EDGE ( 'NONE', *, *, #245, .F. ) ;
#252 = LOCAL_TIME ( 9, 45, 9.000000000000000000, #177 ) ;
#253 = DIRECTION ( 'NONE',  ( 0.0000000000000000000, -1.000000000000000000, 0.0000000000000000000 ) ) ;
#254 = ADVANCED_FACE ( 'NONE', ( #206 ), #314, .T. ) ;
#255 = DIRECTION ( 'NONE',  ( -0.7071067811865475700, 0.7071067811865475700, 0.0000000000000000000 ) ) ;
#256 = DIRECTION ( 'NONE',  ( -0.0000000000000000000, -0.0000000000000000000, -1.000000000000000000 ) ) ;
#257 = LINE ( 'NONE', #182, #136 ) ;
#258 = ORIENTED_EDGE ( 'NONE', *, *, #157, .F. ) ;
#259 = DIRECTION ( 'NONE',  ( 1.000000000000000000, 0.0000000000000000000, 0.0000000000000000000 ) ) ;
#260 = AXIS2_PLACEMENT_3D ( 'NONE', #148, #49, #180 ) ;
#261 = COORDINATED_UNIVERSAL_TIME_OFFSET ( 5, 0, .BEHIND. ) ;
#262 = DIRECTION ( 'NONE',  ( -0.0000000000000000000, -0.0000000000000000000, -1.000000000000000000 ) ) ;
#263 = CARTESIAN_POINT ( 'NONE',  ( 12.69999999999999900, 0.0000000000000000000, 12.69999999999999900 ) ) ;
#264 = CARTESIAN_POINT ( 'NONE',  ( 0.0000000000000000000, -12.69999999999999900, -12.69999999999999900 ) ) ;
#265 = CALENDAR_DATE ( 2019, 11, 2 ) ;
#266 = APPROVAL_STATUS ( 'not_yet_approved' ) ;
#267 = EDGE_LOOP ( 'NONE', ( #109, #73, #294, #195 ) ) ;
#268 = CARTESIAN_POINT ( 'NONE',  ( 0.0000000000000000000, 12.69999999999999900, 12.69999999999999900 ) ) ;
#269 = CC_DESIGN_PERSON_AND_ORGANIZATION_ASSIGNMENT ( #288, #92, ( #2 ) ) ;
#270 = CARTESIAN_POINT ( 'NONE',  ( 0.0000000000000000000, 0.0000000000000000000, 0.0000000000000000000 ) ) ;
#271 = APPROVAL_PERSON_ORGANIZATION ( #318, #18, #37 ) ;
#272 = VECTOR ( 'NONE', #30, 1000.000000000000100 ) ;
#273 = PERSON_AND_ORGANIZATION ( #118, #220 ) ;
#274 = FACE_OUTER_BOUND ( 'NONE', #239, .T. ) ;
#275 = VERTEX_POINT ( 'NONE', #61 ) ;
#276 = LINE ( 'NONE', #33, #161 ) ;
#277 = ORIENTED_EDGE ( 'NONE', *, *, #26, .F. ) ;
#278 = ORIENTED_EDGE ( 'NONE', *, *, #212, .T. ) ;
#279 = DIRECTION ( 'NONE',  ( -0.7071067811865474600, -0.7071067811865474600, 0.0000000000000000000 ) ) ;
#280 = EDGE_CURVE ( 'NONE', #231, #196, #299, .T. ) ;
#281 = CARTESIAN_POINT ( 'NONE',  ( 12.69999999999999900, -12.69999999999999900, 12.69999999999999900 ) ) ;
#282 = COORDINATED_UNIVERSAL_TIME_OFFSET ( 5, 0, .BEHIND. ) ;
#283 = DIRECTION ( 'NONE',  ( -0.7071067811865474600, -0.7071067811865474600, 0.0000000000000000000 ) ) ;
#284 = CARTESIAN_POINT ( 'NONE',  ( 0.0000000000000000000, 0.0000000000000000000, -12.69999999999999900 ) ) ;
#285 = ORIENTED_EDGE ( 'NONE', *, *, #125, .T. ) ;
#286 = CARTESIAN_POINT ( 'NONE',  ( 0.0000000000000000000, 0.0000000000000000000, 12.69999999999999900 ) ) ;
#287 = CARTESIAN_POINT ( 'NONE',  ( -12.69999999999999800, -12.69999999999999800, -12.69999999999999900 ) ) ;
#288 = PERSON_AND_ORGANIZATION ( #118, #220 ) ;
#289 = DIRECTION ( 'NONE',  ( 0.7071067811865474600, 0.7071067811865474600, 0.0000000000000000000 ) ) ;
#290 = DATE_TIME_ROLE ( 'creation_date' ) ;
#291 = CC_DESIGN_PERSON_AND_ORGANIZATION_ASSIGNMENT ( #273, #39, ( #64 ) ) ;
#292 = SHAPE_DEFINITION_REPRESENTATION ( #242, #141 ) ;
#293 = EDGE_LOOP ( 'NONE', ( #77, #251, #181 ) ) ;
#294 = ORIENTED_EDGE ( 'NONE', *, *, #280, .T. ) ;
#295 = APPROVAL_DATE_TIME ( #28, #131 ) ;
#296 = CALENDAR_DATE ( 2019, 11, 2 ) ;
#297 = CALENDAR_DATE ( 2019, 11, 2 ) ;
#298 = EDGE_CURVE ( 'NONE', #150, #5, #224, .T. ) ;
#299 = LINE ( 'NONE', #286, #67 ) ;
#300 = CARTESIAN_POINT ( 'NONE',  ( -12.69999999999999800, -12.69999999999999800, 12.69999999999999900 ) ) ;
#301 = LINE ( 'NONE', #99, #35 ) ;
#302 = ADVANCED_FACE ( 'NONE', ( #123 ), #163, .T. ) ;
#303 = DIRECTION ( 'NONE',  ( 0.0000000000000000000, 1.000000000000000000, 0.0000000000000000000 ) ) ;
#304 = CARTESIAN_POINT ( 'NONE',  ( 0.0000000000000000000, -12.69999999999999900, 12.69999999999999900 ) ) ;
#305 = ORIENTED_EDGE ( 'NONE', *, *, #91, .F. ) ;
#306 = ORIENTED_EDGE ( 'NONE', *, *, #44, .T. ) ;
#307 = CARTESIAN_POINT ( 'NONE',  ( 12.69999999999999800, 12.69999999999999800, 12.69999999999999900 ) ) ;
#308 = PRODUCT_DEFINITION ( 'UNKNOWN', '', #2, #222 ) ;
#309 = CARTESIAN_POINT ( 'NONE',  ( 12.69999999999999900, -12.69999999999999900, -12.69999999999999900 ) ) ;
#310 = DIRECTION ( 'NONE',  ( -0.7071067811865475700, 0.7071067811865475700, 0.0000000000000000000 ) ) ;
#311 = LINE ( 'NONE', #8, #272 ) ;
#312 = VERTEX_POINT ( 'NONE', #287 ) ;
#313 = PLANE ( 'NONE',  #145 ) ;
#314 = PLANE ( 'NONE',  #51 ) ;
#315 = LINE ( 'NONE', #232, #11 ) ;
#316 = DIRECTION ( 'NONE',  ( 0.0000000000000000000, 1.000000000000000000, 0.0000000000000000000 ) ) ;
#317 = APPROVAL_STATUS ( 'not_yet_approved' ) ;
#318 = PERSON_AND_ORGANIZATION ( #118, #220 ) ;
#319 = PERSON_AND_ORGANIZATION_ROLE ( 'classification_officer' ) ;
#320 = UNCERTAINTY_MEASURE_WITH_UNIT (LENGTH_MEASURE( 1.000000000000000100E-005 ), #134, 'distance_accuracy_value', 'NONE');
#321 = EDGE_LOOP ( 'NONE', ( #277, #167, #20, #36 ) ) ;
ENDSEC;
END-ISO-10303-21;
