ISO-10303-21;
HEADER;
FILE_DESCRIPTION (( 'STEP AP203' ),
    '1' );
FILE_NAME ('36936_36963.step',
    '2017-08-23T20:39:50',
    ( '' ),
    ( '' ),
    'SwSTEP 2.0',
    'SolidWorks 2016',
    '' );
FILE_SCHEMA (( 'CONFIG_CONTROL_DESIGN' ));
ENDSEC;

DATA;
#1 = ORIENTED_EDGE ( 'NONE', *, *, #124, .F. ) ;
#2 = CC_DESIGN_PERSON_AND_ORGANIZATION_ASSIGNMENT ( #73, #148, ( #51 ) ) ;
#3 = PRODUCT_DEFINITION ( 'UNKNOWN', '', #51, #80 ) ;
#4 = APPROVAL_DATE_TIME ( #152, #138 ) ;
#5 = DIRECTION ( 'NONE',  ( 0.0000000000000000000, 0.0000000000000000000, 1.000000000000000000 ) ) ;
#6 = APPROVAL_PERSON_ORGANIZATION ( #122, #138, #108 ) ;
#7 = PERSON_AND_ORGANIZATION ( #151, #160 ) ;
#8 = CARTESIAN_POINT ( 'NONE',  ( 0.0000000000000000000, 0.0000000000000000000, -2.500000000000000000 ) ) ;
#9 = CC_DESIGN_DATE_AND_TIME_ASSIGNMENT ( #43, #67, ( #3 ) ) ;
#10 = APPROVAL_STATUS ( 'not_yet_approved' ) ;
#11 = APPROVAL_DATE_TIME ( #118, #153 ) ;
#12 = PERSON_AND_ORGANIZATION_ROLE ( 'creator' ) ;
#13 = CALENDAR_DATE ( 2017, 23, 8 ) ;
#14 = COORDINATED_UNIVERSAL_TIME_OFFSET ( 5, 0, .BEHIND. ) ;
#15 = CC_DESIGN_PERSON_AND_ORGANIZATION_ASSIGNMENT ( #70, #34, ( #51 ) ) ;
#16 = CC_DESIGN_APPROVAL ( #153, ( #3 ) ) ;
#17 = SHAPE_DEFINITION_REPRESENTATION ( #156, #132 ) ;
#18 = ORIENTED_EDGE ( 'NONE', *, *, #145, .T. ) ;
#19 = CARTESIAN_POINT ( 'NONE',  ( -37.49999999999999300, 0.0000000000000000000, 2.500000000000000000 ) ) ;
#20 = ADVANCED_FACE ( 'NONE', ( #165 ), #127, .T. ) ;
#21 = FACE_OUTER_BOUND ( 'NONE', #82, .T. ) ;
#22 = CARTESIAN_POINT ( 'NONE',  ( 37.49999999999999300, 4.592425496802573600E-015, -2.500000000000000000 ) ) ;
#23 = ADVANCED_FACE ( 'NONE', ( #21 ), #170, .T. ) ;
#24 = DIRECTION ( 'NONE',  ( 1.000000000000000000, 0.0000000000000000000, 0.0000000000000000000 ) ) ;
#25 = DIRECTION ( 'NONE',  ( 0.0000000000000000000, 0.0000000000000000000, 1.000000000000000000 ) ) ;
#26 = APPROVAL_ROLE ( '' ) ;
#27 = CC_DESIGN_PERSON_AND_ORGANIZATION_ASSIGNMENT ( #7, #136, ( #98 ) ) ;
#28 = COORDINATED_UNIVERSAL_TIME_OFFSET ( 5, 0, .BEHIND. ) ;
#29 = ORIENTED_EDGE ( 'NONE', *, *, #140, .F. ) ;
#30 = AXIS2_PLACEMENT_3D ( 'NONE', #75, #66, #161 ) ;
#31 = CIRCLE ( 'NONE', #65, 37.49999999999999300 ) ;
#32 = DIRECTION ( 'NONE',  ( 0.0000000000000000000, 0.0000000000000000000, 1.000000000000000000 ) ) ;
#33 = VECTOR ( 'NONE', #45, 1000.000000000000000 ) ;
#34 = PERSON_AND_ORGANIZATION_ROLE ( 'design_supplier' ) ;
#35 = AXIS2_PLACEMENT_3D ( 'NONE', #146, #59, #144 ) ;
#36 = APPROVAL_DATE_TIME ( #39, #142 ) ;
#37 = ORIENTED_EDGE ( 'NONE', *, *, #164, .F. ) ;
#38 = CC_DESIGN_APPROVAL ( #138, ( #51 ) ) ;
#39 = DATE_AND_TIME ( #121, #81 ) ;
#40 = AXIS2_PLACEMENT_3D ( 'NONE', #154, #126, #41 ) ;
#41 = DIRECTION ( 'NONE',  ( -1.000000000000000000, 0.0000000000000000000, 0.0000000000000000000 ) ) ;
#42 = CARTESIAN_POINT ( 'NONE',  ( -37.49999999999999300, 0.0000000000000000000, -2.500000000000000000 ) ) ;
#43 = DATE_AND_TIME ( #95, #71 ) ;
#44 = CIRCLE ( 'NONE', #107, 37.49999999999999300 ) ;
#45 = DIRECTION ( 'NONE',  ( -0.0000000000000000000, -0.0000000000000000000, -1.000000000000000000 ) ) ;
#46 = DIRECTION ( 'NONE',  ( 0.0000000000000000000, 0.0000000000000000000, 1.000000000000000000 ) ) ;
#47 = APPROVAL_STATUS ( 'not_yet_approved' ) ;
#48 = ORIENTED_EDGE ( 'NONE', *, *, #110, .F. ) ;
#49 = CARTESIAN_POINT ( 'NONE',  ( 0.0000000000000000000, 0.0000000000000000000, -2.500000000000000000 ) ) ;
#50 = MECHANICAL_CONTEXT ( 'NONE', #77, 'mechanical' ) ;
#51 = PRODUCT_DEFINITION_FORMATION_WITH_SPECIFIED_SOURCE ( 'ANY', '', #98, .NOT_KNOWN. ) ;
#52 = ORIENTED_EDGE ( 'NONE', *, *, #92, .T. ) ;
#53 = PERSON_AND_ORGANIZATION ( #151, #160 ) ;
#54 = MANIFOLD_SOLID_BREP ( 'Boss-Extrude1', #58 ) ;
#55 = CC_DESIGN_SECURITY_CLASSIFICATION ( #150, ( #51 ) ) ;
#56 = VERTEX_POINT ( 'NONE', #60 ) ;
#57 = CC_DESIGN_DATE_AND_TIME_ASSIGNMENT ( #141, #78, ( #150 ) ) ;
#58 = CLOSED_SHELL ( 'NONE', ( #20, #23, #109, #114 ) ) ;
#59 = DIRECTION ( 'NONE',  ( -0.0000000000000000000, -0.0000000000000000000, -1.000000000000000000 ) ) ;
#60 = CARTESIAN_POINT ( 'NONE',  ( -37.49999999999999300, 0.0000000000000000000, 2.500000000000000000 ) ) ;
#61 = COORDINATED_UNIVERSAL_TIME_OFFSET ( 5, 0, .BEHIND. ) ;
#62 = LOCAL_TIME ( 16, 39, 50.00000000000000000, #28 ) ;
#63 = VERTEX_POINT ( 'NONE', #42 ) ;
#64 =( NAMED_UNIT ( * ) PLANE_ANGLE_UNIT ( ) SI_UNIT ( $, .RADIAN. ) );
#65 = AXIS2_PLACEMENT_3D ( 'NONE', #129, #5, #85 ) ;
#66 = DIRECTION ( 'NONE',  ( 0.0000000000000000000, 0.0000000000000000000, 1.000000000000000000 ) ) ;
#67 = DATE_TIME_ROLE ( 'creation_date' ) ;
#68 = VERTEX_POINT ( 'NONE', #22 ) ;
#69 = ORIENTED_EDGE ( 'NONE', *, *, #110, .T. ) ;
#70 = PERSON_AND_ORGANIZATION ( #151, #160 ) ;
#71 = LOCAL_TIME ( 16, 39, 50.00000000000000000, #61 ) ;
#72 = PRODUCT_RELATED_PRODUCT_CATEGORY ( 'detail', '', ( #98 ) ) ;
#73 = PERSON_AND_ORGANIZATION ( #151, #160 ) ;
#74 = ORIENTED_EDGE ( 'NONE', *, *, #164, .T. ) ;
#75 = CARTESIAN_POINT ( 'NONE',  ( 0.0000000000000000000, 0.0000000000000000000, 0.0000000000000000000 ) ) ;
#76 = CARTESIAN_POINT ( 'NONE',  ( 37.49999999999999300, 4.592425496802573600E-015, 2.500000000000000000 ) ) ;
#77 = APPLICATION_CONTEXT ( 'configuration controlled 3d designs of mechanical parts and assemblies' ) ;
#78 = DATE_TIME_ROLE ( 'classification_date' ) ;
#79 = APPLICATION_PROTOCOL_DEFINITION ( 'international standard', 'config_control_design', 1994, #77 ) ;
#80 = DESIGN_CONTEXT ( 'detailed design', #105, 'design' ) ;
#81 = LOCAL_TIME ( 16, 39, 50.00000000000000000, #113 ) ;
#82 = EDGE_LOOP ( 'NONE', ( #37, #96, #69, #101 ) ) ;
#83 = CIRCLE ( 'NONE', #119, 37.49999999999999300 ) ;
#84 =( GEOMETRIC_REPRESENTATION_CONTEXT ( 3 ) GLOBAL_UNCERTAINTY_ASSIGNED_CONTEXT ( ( #172 ) ) GLOBAL_UNIT_ASSIGNED_CONTEXT ( ( #173, #64, #147 ) ) REPRESENTATION_CONTEXT ( 'NONE', 'WORKASPACE' ) );
#85 = DIRECTION ( 'NONE',  ( 1.000000000000000000, 0.0000000000000000000, 0.0000000000000000000 ) ) ;
#86 = VECTOR ( 'NONE', #168, 1000.000000000000000 ) ;
#87 = DIRECTION ( 'NONE',  ( 0.0000000000000000000, 0.0000000000000000000, 1.000000000000000000 ) ) ;
#88 = CARTESIAN_POINT ( 'NONE',  ( 37.49999999999999300, 4.592425496802573600E-015, 2.500000000000000000 ) ) ;
#89 = DIRECTION ( 'NONE',  ( 1.000000000000000000, 0.0000000000000000000, 0.0000000000000000000 ) ) ;
#90 = CIRCLE ( 'NONE', #131, 37.49999999999999300 ) ;
#91 = SECURITY_CLASSIFICATION_LEVEL ( 'unclassified' ) ;
#92 = EDGE_CURVE ( 'NONE', #56, #135, #31, .T. ) ;
#93 = APPLICATION_PROTOCOL_DEFINITION ( 'international standard', 'config_control_design', 1994, #105 ) ;
#94 = LOCAL_TIME ( 16, 39, 50.00000000000000000, #167 ) ;
#95 = CALENDAR_DATE ( 2017, 23, 8 ) ;
#96 = ORIENTED_EDGE ( 'NONE', *, *, #92, .F. ) ;
#97 = CC_DESIGN_PERSON_AND_ORGANIZATION_ASSIGNMENT ( #169, #12, ( #3 ) ) ;
#98 = PRODUCT ( '36936_36963', '36936_36963', '', ( #50 ) ) ;
#99 = ORIENTED_EDGE ( 'NONE', *, *, #140, .T. ) ;
#100 = CC_DESIGN_PERSON_AND_ORGANIZATION_ASSIGNMENT ( #163, #106, ( #150 ) ) ;
#101 = ORIENTED_EDGE ( 'NONE', *, *, #124, .T. ) ;
#102 = CARTESIAN_POINT ( 'NONE',  ( 0.0000000000000000000, 0.0000000000000000000, 2.500000000000000000 ) ) ;
#103 = DIRECTION ( 'NONE',  ( 0.0000000000000000000, 0.0000000000000000000, 1.000000000000000000 ) ) ;
#104 = CC_DESIGN_APPROVAL ( #142, ( #150 ) ) ;
#105 = APPLICATION_CONTEXT ( 'configuration controlled 3d designs of mechanical parts and assemblies' ) ;
#106 = PERSON_AND_ORGANIZATION_ROLE ( 'classification_officer' ) ;
#107 = AXIS2_PLACEMENT_3D ( 'NONE', #49, #25, #116 ) ;
#108 = APPROVAL_ROLE ( '' ) ;
#109 = ADVANCED_FACE ( 'NONE', ( #120 ), #158, .T. ) ;
#110 = EDGE_CURVE ( 'NONE', #56, #63, #125, .T. ) ;
#111 = FACE_OUTER_BOUND ( 'NONE', #162, .T. ) ;
#112 = AXIS2_PLACEMENT_3D ( 'NONE', #102, #32, #128 ) ;
#113 = COORDINATED_UNIVERSAL_TIME_OFFSET ( 5, 0, .BEHIND. ) ;
#114 = ADVANCED_FACE ( 'NONE', ( #111 ), #157, .F. ) ;
#115 = DIRECTION ( 'NONE',  ( 1.000000000000000000, 0.0000000000000000000, -0.0000000000000000000 ) ) ;
#116 = DIRECTION ( 'NONE',  ( 1.000000000000000000, 0.0000000000000000000, 0.0000000000000000000 ) ) ;
#117 = APPROVAL_STATUS ( 'not_yet_approved' ) ;
#118 = DATE_AND_TIME ( #133, #62 ) ;
#119 = AXIS2_PLACEMENT_3D ( 'NONE', #8, #103, #24 ) ;
#120 = FACE_OUTER_BOUND ( 'NONE', #166, .T. ) ;
#121 = CALENDAR_DATE ( 2017, 23, 8 ) ;
#122 = PERSON_AND_ORGANIZATION ( #151, #160 ) ;
#123 = EDGE_LOOP ( 'NONE', ( #29, #74, #18, #48 ) ) ;
#124 = EDGE_CURVE ( 'NONE', #63, #68, #83, .T. ) ;
#125 = LINE ( 'NONE', #19, #86 ) ;
#126 = DIRECTION ( 'NONE',  ( -0.0000000000000000000, -0.0000000000000000000, -1.000000000000000000 ) ) ;
#127 = CYLINDRICAL_SURFACE ( 'NONE', #35, 37.49999999999999300 ) ;
#128 = DIRECTION ( 'NONE',  ( 1.000000000000000000, 0.0000000000000000000, -0.0000000000000000000 ) ) ;
#129 = CARTESIAN_POINT ( 'NONE',  ( 0.0000000000000000000, 0.0000000000000000000, 2.500000000000000000 ) ) ;
#130 = CARTESIAN_POINT ( 'NONE',  ( 0.0000000000000000000, 0.0000000000000000000, 2.500000000000000000 ) ) ;
#131 = AXIS2_PLACEMENT_3D ( 'NONE', #130, #46, #89 ) ;
#132 = ADVANCED_BREP_SHAPE_REPRESENTATION ( '36936_36963', ( #54, #30 ), #84 ) ;
#133 = CALENDAR_DATE ( 2017, 23, 8 ) ;
#134 = APPROVAL_ROLE ( '' ) ;
#135 = VERTEX_POINT ( 'NONE', #76 ) ;
#136 = PERSON_AND_ORGANIZATION_ROLE ( 'design_owner' ) ;
#137 = APPROVAL_PERSON_ORGANIZATION ( #53, #142, #134 ) ;
#138 = APPROVAL ( #10, 'UNSPECIFIED' ) ;
#139 = LINE ( 'NONE', #88, #33 ) ;
#140 = EDGE_CURVE ( 'NONE', #135, #56, #90, .T. ) ;
#141 = DATE_AND_TIME ( #143, #94 ) ;
#142 = APPROVAL ( #117, 'UNSPECIFIED' ) ;
#143 = CALENDAR_DATE ( 2017, 23, 8 ) ;
#144 = DIRECTION ( 'NONE',  ( -1.000000000000000000, 0.0000000000000000000, 0.0000000000000000000 ) ) ;
#145 = EDGE_CURVE ( 'NONE', #68, #63, #44, .T. ) ;
#146 = CARTESIAN_POINT ( 'NONE',  ( 0.0000000000000000000, 0.0000000000000000000, 2.500000000000000000 ) ) ;
#147 =( NAMED_UNIT ( * ) SI_UNIT ( $, .STERADIAN. ) SOLID_ANGLE_UNIT ( ) );
#148 = PERSON_AND_ORGANIZATION_ROLE ( 'creator' ) ;
#149 = APPROVAL_PERSON_ORGANIZATION ( #174, #153, #26 ) ;
#150 = SECURITY_CLASSIFICATION ( '', '', #91 ) ;
#151 = PERSON ( 'UNSPECIFIED', 'UNSPECIFIED', 'UNSPECIFIED', ('UNSPECIFIED'), ('UNSPECIFIED'), ('UNSPECIFIED') ) ;
#152 = DATE_AND_TIME ( #13, #155 ) ;
#153 = APPROVAL ( #47, 'UNSPECIFIED' ) ;
#154 = CARTESIAN_POINT ( 'NONE',  ( 0.0000000000000000000, 0.0000000000000000000, 2.500000000000000000 ) ) ;
#155 = LOCAL_TIME ( 16, 39, 50.00000000000000000, #14 ) ;
#156 = PRODUCT_DEFINITION_SHAPE ( 'NONE', 'NONE',  #3 ) ;
#157 = PLANE ( 'NONE',  #159 ) ;
#158 = PLANE ( 'NONE',  #112 ) ;
#159 = AXIS2_PLACEMENT_3D ( 'NONE', #171, #87, #115 ) ;
#160 = ORGANIZATION ( 'UNSPECIFIED', 'UNSPECIFIED', '' ) ;
#161 = DIRECTION ( 'NONE',  ( 1.000000000000000000, 0.0000000000000000000, 0.0000000000000000000 ) ) ;
#162 = EDGE_LOOP ( 'NONE', ( #1, #175 ) ) ;
#163 = PERSON_AND_ORGANIZATION ( #151, #160 ) ;
#164 = EDGE_CURVE ( 'NONE', #135, #68, #139, .T. ) ;
#165 = FACE_OUTER_BOUND ( 'NONE', #123, .T. ) ;
#166 = EDGE_LOOP ( 'NONE', ( #52, #99 ) ) ;
#167 = COORDINATED_UNIVERSAL_TIME_OFFSET ( 5, 0, .BEHIND. ) ;
#168 = DIRECTION ( 'NONE',  ( -0.0000000000000000000, -0.0000000000000000000, -1.000000000000000000 ) ) ;
#169 = PERSON_AND_ORGANIZATION ( #151, #160 ) ;
#170 = CYLINDRICAL_SURFACE ( 'NONE', #40, 37.49999999999999300 ) ;
#171 = CARTESIAN_POINT ( 'NONE',  ( 0.0000000000000000000, 0.0000000000000000000, -2.500000000000000000 ) ) ;
#172 = UNCERTAINTY_MEASURE_WITH_UNIT (LENGTH_MEASURE( 1.000000000000000100E-005 ), #173, 'distance_accuracy_value', 'NONE');
#173 =( LENGTH_UNIT ( ) NAMED_UNIT ( * ) SI_UNIT ( .MILLI., .METRE. ) );
#174 = PERSON_AND_ORGANIZATION ( #151, #160 ) ;
#175 = ORIENTED_EDGE ( 'NONE', *, *, #145, .F. ) ;
ENDSEC;
END-ISO-10303-21;
