ISO-10303-21;
HEADER;
FILE_DESCRIPTION (( 'STEP AP203' ),
    '1' );
FILE_NAME ('Web Model 68527.STEP',
    '2017-02-01T13:28:12',
    ( '' ),
    ( '' ),
    'SwSTEP 2.0',
    'SolidWorks 2016',
    '' );
FILE_SCHEMA (( 'CONFIG_CONTROL_DESIGN' ));
ENDSEC;

DATA;
#1 = APPROVAL_DATE_TIME ( #78, #137 ) ;
#2 = DATE_TIME_ROLE ( 'classification_date' ) ;
#3 = APPLICATION_PROTOCOL_DEFINITION ( 'international standard', 'config_control_design', 1994, #51 ) ;
#4 = PERSON_AND_ORGANIZATION_ROLE ( 'creator' ) ;
#5 = PERSON ( 'UNSPECIFIED', 'UNSPECIFIED', 'UNSPECIFIED', ('UNSPECIFIED'), ('UNSPECIFIED'), ('UNSPECIFIED') ) ;
#6 = LOCAL_TIME ( 8, 28, 12.00000000000000000, #118 ) ;
#7 = ADVANCED_BREP_SHAPE_REPRESENTATION ( 'Web Model 68527', ( #101, #103 ), #89 ) ;
#8 = AXIS2_PLACEMENT_3D ( 'NONE', #40, #125, #48 ) ;
#9 = PERSON_AND_ORGANIZATION ( #5, #50 ) ;
#10 = ORIENTED_EDGE ( 'NONE', *, *, #140, .F. ) ;
#11 = CALENDAR_DATE ( 2017, 1, 2 ) ;
#12 = ADVANCED_FACE ( 'NONE', ( #106 ), #156, .T. ) ;
#13 = LINE ( 'NONE', #164, #166 ) ;
#14 = DIRECTION ( 'NONE',  ( 0.0000000000000000000, 0.0000000000000000000, -1.000000000000000000 ) ) ;
#15 = CALENDAR_DATE ( 2017, 1, 2 ) ;
#16 =( NAMED_UNIT ( * ) PLANE_ANGLE_UNIT ( ) SI_UNIT ( $, .RADIAN. ) );
#17 = PERSON_AND_ORGANIZATION_ROLE ( 'design_supplier' ) ;
#18 = DIRECTION ( 'NONE',  ( 1.000000000000000000, 0.0000000000000000000, 0.0000000000000000000 ) ) ;
#19 = EDGE_LOOP ( 'NONE', ( #69, #143 ) ) ;
#20 = PERSON_AND_ORGANIZATION ( #5, #50 ) ;
#21 = VERTEX_POINT ( 'NONE', #98 ) ;
#22 = CC_DESIGN_SECURITY_CLASSIFICATION ( #122, ( #110 ) ) ;
#23 = VECTOR ( 'NONE', #86, 1000.000000000000000 ) ;
#24 = DIRECTION ( 'NONE',  ( 0.0000000000000000000, 0.0000000000000000000, -1.000000000000000000 ) ) ;
#25 = DIRECTION ( 'NONE',  ( 0.0000000000000000000, -0.0000000000000000000, 1.000000000000000000 ) ) ;
#26 = CC_DESIGN_PERSON_AND_ORGANIZATION_ASSIGNMENT ( #20, #17, ( #110 ) ) ;
#27 = CARTESIAN_POINT ( 'NONE',  ( 0.0000000000000000000, 3.000000000000000000, 0.0000000000000000000 ) ) ;
#28 = CARTESIAN_POINT ( 'NONE',  ( 0.0000000000000000000, 3.000000000000000000, 0.0000000000000000000 ) ) ;
#29 = PLANE ( 'NONE',  #8 ) ;
#30 = COORDINATED_UNIVERSAL_TIME_OFFSET ( 5, 0, .BEHIND. ) ;
#31 = CYLINDRICAL_SURFACE ( 'NONE', #36, 12.50000000000000000 ) ;
#32 =( NAMED_UNIT ( * ) SI_UNIT ( $, .STERADIAN. ) SOLID_ANGLE_UNIT ( ) );
#33 = EDGE_CURVE ( 'NONE', #124, #21, #97, .T. ) ;
#34 = PERSON_AND_ORGANIZATION_ROLE ( 'creator' ) ;
#35 = PERSON_AND_ORGANIZATION ( #5, #50 ) ;
#36 = AXIS2_PLACEMENT_3D ( 'NONE', #160, #67, #24 ) ;
#37 = CIRCLE ( 'NONE', #84, 12.50000000000000000 ) ;
#38 = EDGE_CURVE ( 'NONE', #175, #21, #111, .T. ) ;
#39 = APPROVAL_PERSON_ORGANIZATION ( #35, #142, #61 ) ;
#40 = CARTESIAN_POINT ( 'NONE',  ( 0.0000000000000000000, 0.0000000000000000000, 0.0000000000000000000 ) ) ;
#41 = PERSON_AND_ORGANIZATION ( #5, #50 ) ;
#42 = DIRECTION ( 'NONE',  ( -0.0000000000000000000, -1.000000000000000000, -0.0000000000000000000 ) ) ;
#43 = EDGE_CURVE ( 'NONE', #124, #107, #37, .T. ) ;
#44 = CC_DESIGN_PERSON_AND_ORGANIZATION_ASSIGNMENT ( #114, #87, ( #122 ) ) ;
#45 = ORIENTED_EDGE ( 'NONE', *, *, #38, .T. ) ;
#46 = LOCAL_TIME ( 8, 28, 12.00000000000000000, #132 ) ;
#47 = DIRECTION ( 'NONE',  ( 0.0000000000000000000, 0.0000000000000000000, 1.000000000000000000 ) ) ;
#48 = DIRECTION ( 'NONE',  ( 0.0000000000000000000, -0.0000000000000000000, 1.000000000000000000 ) ) ;
#49 = AXIS2_PLACEMENT_3D ( 'NONE', #161, #81, #82 ) ;
#50 = ORGANIZATION ( 'UNSPECIFIED', 'UNSPECIFIED', '' ) ;
#51 = APPLICATION_CONTEXT ( 'configuration controlled 3d designs of mechanical parts and assemblies' ) ;
#52 = AXIS2_PLACEMENT_3D ( 'NONE', #109, #144, #153 ) ;
#53 = CALENDAR_DATE ( 2017, 1, 2 ) ;
#54 = DIRECTION ( 'NONE',  ( 0.0000000000000000000, 1.000000000000000000, 0.0000000000000000000 ) ) ;
#55 = ORIENTED_EDGE ( 'NONE', *, *, #43, .F. ) ;
#56 = CC_DESIGN_APPROVAL ( #137, ( #131 ) ) ;
#57 =( LENGTH_UNIT ( ) NAMED_UNIT ( * ) SI_UNIT ( .MILLI., .METRE. ) );
#58 = CARTESIAN_POINT ( 'NONE',  ( 1.530808498934191500E-015, 3.000000000000000000, 12.50000000000000000 ) ) ;
#59 = EDGE_LOOP ( 'NONE', ( #123, #10 ) ) ;
#60 = APPROVAL_STATUS ( 'not_yet_approved' ) ;
#61 = APPROVAL_ROLE ( '' ) ;
#62 = COORDINATED_UNIVERSAL_TIME_OFFSET ( 5, 0, .BEHIND. ) ;
#63 = AXIS2_PLACEMENT_3D ( 'NONE', #27, #105, #25 ) ;
#64 = DIRECTION ( 'NONE',  ( 0.0000000000000000000, 0.0000000000000000000, 1.000000000000000000 ) ) ;
#65 = CARTESIAN_POINT ( 'NONE',  ( 0.0000000000000000000, 0.0000000000000000000, 0.0000000000000000000 ) ) ;
#66 = FACE_OUTER_BOUND ( 'NONE', #59, .T. ) ;
#67 = DIRECTION ( 'NONE',  ( -0.0000000000000000000, -1.000000000000000000, -0.0000000000000000000 ) ) ;
#68 = CC_DESIGN_APPROVAL ( #174, ( #110 ) ) ;
#69 = ORIENTED_EDGE ( 'NONE', *, *, #163, .T. ) ;
#70 = CARTESIAN_POINT ( 'NONE',  ( 0.0000000000000000000, 0.0000000000000000000, 0.0000000000000000000 ) ) ;
#71 = PERSON_AND_ORGANIZATION ( #5, #50 ) ;
#72 = APPROVAL_PERSON_ORGANIZATION ( #41, #137, #154 ) ;
#73 = PRODUCT_RELATED_PRODUCT_CATEGORY ( 'detail', '', ( #117 ) ) ;
#74 = ORIENTED_EDGE ( 'NONE', *, *, #149, .T. ) ;
#75 = DATE_AND_TIME ( #167, #158 ) ;
#76 = CC_DESIGN_DATE_AND_TIME_ASSIGNMENT ( #127, #2, ( #122 ) ) ;
#77 = ORIENTED_EDGE ( 'NONE', *, *, #140, .T. ) ;
#78 = DATE_AND_TIME ( #11, #128 ) ;
#79 = DIRECTION ( 'NONE',  ( -0.0000000000000000000, -1.000000000000000000, -0.0000000000000000000 ) ) ;
#80 = FACE_OUTER_BOUND ( 'NONE', #116, .T. ) ;
#81 = DIRECTION ( 'NONE',  ( 0.0000000000000000000, 1.000000000000000000, 0.0000000000000000000 ) ) ;
#82 = DIRECTION ( 'NONE',  ( 0.0000000000000000000, 0.0000000000000000000, 1.000000000000000000 ) ) ;
#83 = ORIENTED_EDGE ( 'NONE', *, *, #163, .F. ) ;
#84 = AXIS2_PLACEMENT_3D ( 'NONE', #28, #120, #47 ) ;
#85 = CIRCLE ( 'NONE', #49, 12.50000000000000000 ) ;
#86 = DIRECTION ( 'NONE',  ( -0.0000000000000000000, -1.000000000000000000, -0.0000000000000000000 ) ) ;
#87 = PERSON_AND_ORGANIZATION_ROLE ( 'classification_officer' ) ;
#88 = APPLICATION_PROTOCOL_DEFINITION ( 'international standard', 'config_control_design', 1994, #136 ) ;
#89 =( GEOMETRIC_REPRESENTATION_CONTEXT ( 3 ) GLOBAL_UNCERTAINTY_ASSIGNED_CONTEXT ( ( #146 ) ) GLOBAL_UNIT_ASSIGNED_CONTEXT ( ( #57, #16, #32 ) ) REPRESENTATION_CONTEXT ( 'NONE', 'WORKASPACE' ) );
#90 = SHAPE_DEFINITION_REPRESENTATION ( #151, #7 ) ;
#91 = PERSON_AND_ORGANIZATION ( #5, #50 ) ;
#92 = DESIGN_CONTEXT ( 'detailed design', #136, 'design' ) ;
#93 = AXIS2_PLACEMENT_3D ( 'NONE', #152, #42, #14 ) ;
#94 = CLOSED_SHELL ( 'NONE', ( #134, #12, #150, #96 ) ) ;
#95 = COORDINATED_UNIVERSAL_TIME_OFFSET ( 5, 0, .BEHIND. ) ;
#96 = ADVANCED_FACE ( 'NONE', ( #66 ), #29, .F. ) ;
#97 = LINE ( 'NONE', #58, #23 ) ;
#98 = CARTESIAN_POINT ( 'NONE',  ( 1.530808498934191500E-015, 0.0000000000000000000, 12.50000000000000000 ) ) ;
#99 = APPROVAL_STATUS ( 'not_yet_approved' ) ;
#100 = DATE_TIME_ROLE ( 'creation_date' ) ;
#101 = MANIFOLD_SOLID_BREP ( 'Extrude1', #94 ) ;
#102 = CALENDAR_DATE ( 2017, 1, 2 ) ;
#103 = AXIS2_PLACEMENT_3D ( 'NONE', #65, #126, #18 ) ;
#104 = ORIENTED_EDGE ( 'NONE', *, *, #149, .F. ) ;
#105 = DIRECTION ( 'NONE',  ( 0.0000000000000000000, 1.000000000000000000, 0.0000000000000000000 ) ) ;
#106 = FACE_OUTER_BOUND ( 'NONE', #157, .T. ) ;
#107 = VERTEX_POINT ( 'NONE', #147 ) ;
#108 = DATE_AND_TIME ( #53, #6 ) ;
#109 = CARTESIAN_POINT ( 'NONE',  ( 0.0000000000000000000, 0.0000000000000000000, 0.0000000000000000000 ) ) ;
#110 = PRODUCT_DEFINITION_FORMATION_WITH_SPECIFIED_SOURCE ( 'ANY', '', #117, .NOT_KNOWN. ) ;
#111 = CIRCLE ( 'NONE', #52, 12.50000000000000000 ) ;
#112 = PERSON_AND_ORGANIZATION_ROLE ( 'design_owner' ) ;
#113 = APPROVAL_STATUS ( 'not_yet_approved' ) ;
#114 = PERSON_AND_ORGANIZATION ( #5, #50 ) ;
#115 = APPROVAL_PERSON_ORGANIZATION ( #71, #174, #168 ) ;
#116 = EDGE_LOOP ( 'NONE', ( #55, #162, #77, #104 ) ) ;
#117 = PRODUCT ( 'Web Model 68527', 'Web Model 68527', '', ( #169 ) ) ;
#118 = COORDINATED_UNIVERSAL_TIME_OFFSET ( 5, 0, .BEHIND. ) ;
#119 = AXIS2_PLACEMENT_3D ( 'NONE', #70, #54, #64 ) ;
#120 = DIRECTION ( 'NONE',  ( 0.0000000000000000000, 1.000000000000000000, 0.0000000000000000000 ) ) ;
#121 = FACE_OUTER_BOUND ( 'NONE', #19, .T. ) ;
#122 = SECURITY_CLASSIFICATION ( '', '', #138 ) ;
#123 = ORIENTED_EDGE ( 'NONE', *, *, #38, .F. ) ;
#124 = VERTEX_POINT ( 'NONE', #135 ) ;
#125 = DIRECTION ( 'NONE',  ( 0.0000000000000000000, 1.000000000000000000, 0.0000000000000000000 ) ) ;
#126 = DIRECTION ( 'NONE',  ( 0.0000000000000000000, 0.0000000000000000000, 1.000000000000000000 ) ) ;
#127 = DATE_AND_TIME ( #15, #170 ) ;
#128 = LOCAL_TIME ( 8, 28, 12.00000000000000000, #95 ) ;
#129 = PERSON_AND_ORGANIZATION ( #5, #50 ) ;
#130 = APPROVAL_DATE_TIME ( #75, #174 ) ;
#131 = PRODUCT_DEFINITION ( 'UNKNOWN', '', #110, #92 ) ;
#132 = COORDINATED_UNIVERSAL_TIME_OFFSET ( 5, 0, .BEHIND. ) ;
#133 = APPROVAL_DATE_TIME ( #171, #142 ) ;
#134 = ADVANCED_FACE ( 'NONE', ( #80 ), #31, .T. ) ;
#135 = CARTESIAN_POINT ( 'NONE',  ( 1.530808498934191500E-015, 3.000000000000000000, 12.50000000000000000 ) ) ;
#136 = APPLICATION_CONTEXT ( 'configuration controlled 3d designs of mechanical parts and assemblies' ) ;
#137 = APPROVAL ( #60, 'UNSPECIFIED' ) ;
#138 = SECURITY_CLASSIFICATION_LEVEL ( 'unclassified' ) ;
#139 = ORIENTED_EDGE ( 'NONE', *, *, #33, .F. ) ;
#140 = EDGE_CURVE ( 'NONE', #21, #175, #141, .T. ) ;
#141 = CIRCLE ( 'NONE', #119, 12.50000000000000000 ) ;
#142 = APPROVAL ( #99, 'UNSPECIFIED' ) ;
#143 = ORIENTED_EDGE ( 'NONE', *, *, #43, .T. ) ;
#144 = DIRECTION ( 'NONE',  ( 0.0000000000000000000, 1.000000000000000000, 0.0000000000000000000 ) ) ;
#145 = CARTESIAN_POINT ( 'NONE',  ( 0.0000000000000000000, 0.0000000000000000000, -12.50000000000000000 ) ) ;
#146 = UNCERTAINTY_MEASURE_WITH_UNIT (LENGTH_MEASURE( 1.000000000000000100E-005 ), #57, 'distance_accuracy_value', 'NONE');
#147 = CARTESIAN_POINT ( 'NONE',  ( 0.0000000000000000000, 3.000000000000000000, -12.50000000000000000 ) ) ;
#148 = CC_DESIGN_DATE_AND_TIME_ASSIGNMENT ( #108, #100, ( #131 ) ) ;
#149 = EDGE_CURVE ( 'NONE', #107, #175, #13, .T. ) ;
#150 = ADVANCED_FACE ( 'NONE', ( #121 ), #173, .T. ) ;
#151 = PRODUCT_DEFINITION_SHAPE ( 'NONE', 'NONE',  #131 ) ;
#152 = CARTESIAN_POINT ( 'NONE',  ( 0.0000000000000000000, 3.000000000000000000, 0.0000000000000000000 ) ) ;
#153 = DIRECTION ( 'NONE',  ( 0.0000000000000000000, 0.0000000000000000000, 1.000000000000000000 ) ) ;
#154 = APPROVAL_ROLE ( '' ) ;
#155 = CC_DESIGN_PERSON_AND_ORGANIZATION_ASSIGNMENT ( #129, #112, ( #117 ) ) ;
#156 = CYLINDRICAL_SURFACE ( 'NONE', #93, 12.50000000000000000 ) ;
#157 = EDGE_LOOP ( 'NONE', ( #139, #83, #74, #45 ) ) ;
#158 = LOCAL_TIME ( 8, 28, 12.00000000000000000, #62 ) ;
#159 = CC_DESIGN_PERSON_AND_ORGANIZATION_ASSIGNMENT ( #9, #34, ( #110 ) ) ;
#160 = CARTESIAN_POINT ( 'NONE',  ( 0.0000000000000000000, 3.000000000000000000, 0.0000000000000000000 ) ) ;
#161 = CARTESIAN_POINT ( 'NONE',  ( 0.0000000000000000000, 3.000000000000000000, 0.0000000000000000000 ) ) ;
#162 = ORIENTED_EDGE ( 'NONE', *, *, #33, .T. ) ;
#163 = EDGE_CURVE ( 'NONE', #107, #124, #85, .T. ) ;
#164 = CARTESIAN_POINT ( 'NONE',  ( 0.0000000000000000000, 3.000000000000000000, -12.50000000000000000 ) ) ;
#165 = CC_DESIGN_PERSON_AND_ORGANIZATION_ASSIGNMENT ( #91, #4, ( #131 ) ) ;
#166 = VECTOR ( 'NONE', #79, 1000.000000000000000 ) ;
#167 = CALENDAR_DATE ( 2017, 1, 2 ) ;
#168 = APPROVAL_ROLE ( '' ) ;
#169 = MECHANICAL_CONTEXT ( 'NONE', #51, 'mechanical' ) ;
#170 = LOCAL_TIME ( 8, 28, 12.00000000000000000, #30 ) ;
#171 = DATE_AND_TIME ( #102, #46 ) ;
#172 = CC_DESIGN_APPROVAL ( #142, ( #122 ) ) ;
#173 = PLANE ( 'NONE',  #63 ) ;
#174 = APPROVAL ( #113, 'UNSPECIFIED' ) ;
#175 = VERTEX_POINT ( 'NONE', #145 ) ;
ENDSEC;
END-ISO-10303-21;
