ISO-10303-21;
HEADER;
FILE_DESCRIPTION (( 'STEP AP203' ),
    '1' );
FILE_NAME ('4337-E0W.STEP',
    '2015-06-17T20:48:39',
    ( 'admin' ),
    ( '' ),
    'SwSTEP 2.0',
    'SolidWorks 2014',
    '' );
FILE_SCHEMA (( 'CONFIG_CONTROL_DESIGN' ));
ENDSEC;

DATA;
#1 = DIRECTION ( 'NONE',  ( 0.0000000000000000000, 0.0000000000000000000, -1.000000000000000000 ) ) ;
#2 = CC_DESIGN_DATE_AND_TIME_ASSIGNMENT ( #354, #40, ( #249 ) ) ;
#3 = CARTESIAN_POINT ( 'NONE',  ( -3.080131275408707600E-015, -25.15118054898126600, -1.548276982345747600 ) ) ;
#4 = EDGE_LOOP ( 'NONE', ( #365, #18, #223, #190 ) ) ;
#5 = ADVANCED_FACE ( 'NONE', ( #134 ), #36, .T. ) ;
#6 = FACE_OUTER_BOUND ( 'NONE', #178, .T. ) ;
#7 = EDGE_CURVE ( 'NONE', #106, #287, #108, .T. ) ;
#8 = CARTESIAN_POINT ( 'NONE',  ( -25.15118054898068700, 0.0000000000000000000, 1.548276982345886400 ) ) ;
#9 = APPROVAL ( #344, 'UNSPECIFIED' ) ;
#10 = DIRECTION ( 'NONE',  ( -0.0000000000000000000, -0.0000000000000000000, 1.000000000000000000 ) ) ;
#11 = CIRCLE ( 'NONE', #27, 25.39999999999999900 ) ;
#12 = CALENDAR_DATE ( 2015, 17, 6 ) ;
#13 = EDGE_CURVE ( 'NONE', #257, #147, #165, .T. ) ;
#14 =( NAMED_UNIT ( * ) PLANE_ANGLE_UNIT ( ) SI_UNIT ( $, .RADIAN. ) );
#15 = AXIS2_PLACEMENT_3D ( 'NONE', #22, #51, #179 ) ;
#16 = AXIS2_PLACEMENT_3D ( 'NONE', #289, #240, #273 ) ;
#17 = DIRECTION ( 'NONE',  ( 1.000000000000000000, 0.0000000000000000000, 0.0000000000000000000 ) ) ;
#18 = ORIENTED_EDGE ( 'NONE', *, *, #235, .T. ) ;
#19 = CIRCLE ( 'NONE', #16, 25.15118054898069400 ) ;
#20 = ORIENTED_EDGE ( 'NONE', *, *, #23, .F. ) ;
#21 = CALENDAR_DATE ( 2015, 17, 6 ) ;
#22 = CARTESIAN_POINT ( 'NONE',  ( 0.0000000000000000000, 0.0000000000000000000, 1.548276982345886400 ) ) ;
#23 = EDGE_CURVE ( 'NONE', #184, #246, #44, .T. ) ;
#24 = CALENDAR_DATE ( 2015, 17, 6 ) ;
#25 = DIRECTION ( 'NONE',  ( -0.0000000000000000000, -0.0000000000000000000, 1.000000000000000000 ) ) ;
#26 = CARTESIAN_POINT ( 'NONE',  ( 0.0000000000000000000, 0.0000000000000000000, 1.548276982345886400 ) ) ;
#27 = AXIS2_PLACEMENT_3D ( 'NONE', #37, #149, #358 ) ;
#28 = CC_DESIGN_APPROVAL ( #361, ( #340 ) ) ;
#29 = ORIENTED_EDGE ( 'NONE', *, *, #66, .T. ) ;
#30 = ADVANCED_FACE ( 'NONE', ( #68 ), #208, .T. ) ;
#31 = AXIS2_PLACEMENT_3D ( 'NONE', #64, #97, #83 ) ;
#32 = ORIENTED_EDGE ( 'NONE', *, *, #13, .F. ) ;
#33 = EDGE_CURVE ( 'NONE', #184, #147, #198, .T. ) ;
#34 = DIRECTION ( 'NONE',  ( -1.000000000000000000, 1.224646799147353200E-016, 0.0000000000000000000 ) ) ;
#35 = CIRCLE ( 'NONE', #264, 25.15118054898075100 ) ;
#36 = CONICAL_SURFACE ( 'NONE', #305, 25.39999999999999900, 0.7391841350287202700 ) ;
#37 = CARTESIAN_POINT ( 'NONE',  ( 0.0000000000000000000, 0.0000000000000000000, 1.275327296584027900 ) ) ;
#38 = CARTESIAN_POINT ( 'NONE',  ( 0.0000000000000000000, 0.0000000000000000000, 1.275327296584027900 ) ) ;
#39 = AXIS2_PLACEMENT_3D ( 'NONE', #26, #172, #63 ) ;
#40 = DATE_TIME_ROLE ( 'classification_date' ) ;
#41 = CIRCLE ( 'NONE', #275, 25.39999999999999900 ) ;
#42 = ORIENTED_EDGE ( 'NONE', *, *, #127, .F. ) ;
#43 = ADVANCED_BREP_SHAPE_REPRESENTATION ( '4337-E0W', ( #62, #236 ), #295 ) ;
#44 = CIRCLE ( 'NONE', #294, 25.39999999999999900 ) ;
#45 = CALENDAR_DATE ( 2015, 17, 6 ) ;
#46 = PRODUCT_DEFINITION_SHAPE ( 'NONE', 'NONE',  #340 ) ;
#47 = EDGE_CURVE ( 'NONE', #246, #287, #327, .T. ) ;
#48 = CIRCLE ( 'NONE', #226, 25.15118054898075100 ) ;
#49 = EDGE_LOOP ( 'NONE', ( #323, #252, #210, #119 ) ) ;
#50 = CARTESIAN_POINT ( 'NONE',  ( 25.39999999999999900, 0.0000000000000000000, 1.275327296584027900 ) ) ;
#51 = DIRECTION ( 'NONE',  ( 0.0000000000000000000, 0.0000000000000000000, -1.000000000000000000 ) ) ;
#52 = DIRECTION ( 'NONE',  ( 0.0000000000000000000, 0.0000000000000000000, -1.000000000000000000 ) ) ;
#53 = ADVANCED_FACE ( 'NONE', ( #367 ), #357, .T. ) ;
#54 = ORIENTED_EDGE ( 'NONE', *, *, #47, .T. ) ;
#55 = ORIENTED_EDGE ( 'NONE', *, *, #110, .F. ) ;
#56 = CIRCLE ( 'NONE', #197, 25.15118054898069400 ) ;
#57 = ORIENTED_EDGE ( 'NONE', *, *, #13, .T. ) ;
#58 = AXIS2_PLACEMENT_3D ( 'NONE', #288, #91, #65 ) ;
#59 = DIRECTION ( 'NONE',  ( 1.000000000000000000, 0.0000000000000000000, 0.0000000000000000000 ) ) ;
#60 = CARTESIAN_POINT ( 'NONE',  ( 0.0000000000000000000, 0.0000000000000000000, 272.5000000000000000 ) ) ;
#61 = CARTESIAN_POINT ( 'NONE',  ( 0.0000000000000000000, 0.0000000000000000000, -1.548276982345775400 ) ) ;
#62 = MANIFOLD_SOLID_BREP ( '4337-001-1-solid1', #185 ) ;
#63 = DIRECTION ( 'NONE',  ( -1.000000000000000000, 0.0000000000000000000, 0.0000000000000000000 ) ) ;
#64 = CARTESIAN_POINT ( 'NONE',  ( 0.0000000000000000000, 0.0000000000000000000, -1.548276982345775400 ) ) ;
#65 = DIRECTION ( 'NONE',  ( -1.000000000000000000, 0.0000000000000000000, 0.0000000000000000000 ) ) ;
#66 = EDGE_CURVE ( 'NONE', #265, #184, #220, .T. ) ;
#67 = CARTESIAN_POINT ( 'NONE',  ( 0.0000000000000000000, 25.15118054898126600, -1.548276982345747600 ) ) ;
#68 = FACE_OUTER_BOUND ( 'NONE', #207, .T. ) ;
#69 = CIRCLE ( 'NONE', #364, 275.1999999999999900 ) ;
#70 = ORIENTED_EDGE ( 'NONE', *, *, #337, .T. ) ;
#71 = DIRECTION ( 'NONE',  ( 1.000000000000000000, 0.0000000000000000000, 0.0000000000000000000 ) ) ;
#72 = PERSON_AND_ORGANIZATION_ROLE ( 'classification_officer' ) ;
#73 = PRODUCT_RELATED_PRODUCT_CATEGORY ( 'detail', '', ( #109 ) ) ;
#74 = CONICAL_SURFACE ( 'NONE', #250, 25.39999999999999900, 0.7391841350287202700 ) ;
#75 = EDGE_LOOP ( 'NONE', ( #32, #112, #278, #187, #194 ) ) ;
#76 = SECURITY_CLASSIFICATION_LEVEL ( 'unclassified' ) ;
#77 = EDGE_CURVE ( 'NONE', #147, #287, #11, .T. ) ;
#78 = DIRECTION ( 'NONE',  ( -1.224646799147353200E-016, -1.000000000000000000, 0.0000000000000000000 ) ) ;
#79 = PERSON_AND_ORGANIZATION_ROLE ( 'design_supplier' ) ;
#80 = FACE_OUTER_BOUND ( 'NONE', #49, .T. ) ;
#81 = AXIS2_PLACEMENT_3D ( 'NONE', #38, #231, #282 ) ;
#82 = DIRECTION ( 'NONE',  ( 1.000000000000000000, 0.0000000000000000000, 0.0000000000000000000 ) ) ;
#83 = DIRECTION ( 'NONE',  ( 1.000000000000000000, 0.0000000000000000000, 0.0000000000000000000 ) ) ;
#84 = SPHERICAL_SURFACE ( 'NONE', #307, 275.1999999999999900 ) ;
#85 = ORIENTED_EDGE ( 'NONE', *, *, #33, .T. ) ;
#86 = EDGE_CURVE ( 'NONE', #265, #310, #319, .T. ) ;
#87 = VERTEX_POINT ( 'NONE', #67 ) ;
#88 = CC_DESIGN_SECURITY_CLASSIFICATION ( #249, ( #312 ) ) ;
#89 = DIRECTION ( 'NONE',  ( -1.224646799147353200E-016, -1.000000000000000000, 0.0000000000000000000 ) ) ;
#90 = CARTESIAN_POINT ( 'NONE',  ( 0.0000000000000000000, 0.0000000000000000000, -272.5000000000000000 ) ) ;
#91 = DIRECTION ( 'NONE',  ( -0.0000000000000000000, -0.0000000000000000000, 1.000000000000000000 ) ) ;
#92 = EDGE_CURVE ( 'NONE', #87, #265, #35, .T. ) ;
#93 = DIRECTION ( 'NONE',  ( 0.6736851966505788000, 8.250264197110863900E-017, -0.7390184407806552600 ) ) ;
#94 = VERTEX_POINT ( 'NONE', #229 ) ;
#95 = FACE_OUTER_BOUND ( 'NONE', #4, .T. ) ;
#96 = COORDINATED_UNIVERSAL_TIME_OFFSET ( 5, 0, .BEHIND. ) ;
#97 = DIRECTION ( 'NONE',  ( 0.0000000000000000000, 0.0000000000000000000, -1.000000000000000000 ) ) ;
#98 = CARTESIAN_POINT ( 'NONE',  ( 0.0000000000000000000, 0.0000000000000000000, -1.275327296584027900 ) ) ;
#99 = DIRECTION ( 'NONE',  ( -0.0000000000000000000, -0.0000000000000000000, 1.000000000000000000 ) ) ;
#100 = CARTESIAN_POINT ( 'NONE',  ( -3.080131275408704500E-015, -25.15118054898123700, 1.548276982345747600 ) ) ;
#101 = ORIENTED_EDGE ( 'NONE', *, *, #47, .F. ) ;
#102 = DIRECTION ( 'NONE',  ( 0.0000000000000000000, 1.000000000000000000, 0.0000000000000000000 ) ) ;
#103 = ORIENTED_EDGE ( 'NONE', *, *, #92, .F. ) ;
#104 = CARTESIAN_POINT ( 'NONE',  ( -25.15118054898075100, 3.095367072621460300E-015, -1.548276982345775400 ) ) ;
#105 = APPROVAL_STATUS ( 'not_yet_approved' ) ;
#106 = VERTEX_POINT ( 'NONE', #118 ) ;
#107 = CIRCLE ( 'NONE', #114, 275.1999999999999900 ) ;
#108 = LINE ( 'NONE', #8, #259 ) ;
#109 = PRODUCT ( '4337-E0W', '4337-E0W', '', ( #338 ) ) ;
#110 = EDGE_CURVE ( 'NONE', #310, #130, #177, .T. ) ;
#111 = CC_DESIGN_PERSON_AND_ORGANIZATION_ASSIGNMENT ( #321, #333, ( #340 ) ) ;
#112 = ORIENTED_EDGE ( 'NONE', *, *, #235, .F. ) ;
#113 = PERSON_AND_ORGANIZATION ( #158, #154 ) ;
#114 = AXIS2_PLACEMENT_3D ( 'NONE', #60, #212, #78 ) ;
#115 = ADVANCED_FACE ( 'NONE', ( #325 ), #260, .T. ) ;
#116 = DIRECTION ( 'NONE',  ( -0.0000000000000000000, -0.0000000000000000000, 1.000000000000000000 ) ) ;
#117 = EDGE_CURVE ( 'NONE', #287, #147, #125, .T. ) ;
#118 = CARTESIAN_POINT ( 'NONE',  ( -25.15118054898069400, 0.0000000000000000000, 1.548276982345775400 ) ) ;
#119 = ORIENTED_EDGE ( 'NONE', *, *, #201, .T. ) ;
#120 = EDGE_CURVE ( 'NONE', #161, #360, #69, .T. ) ;
#121 = DIRECTION ( 'NONE',  ( -0.6736851966505018600, 8.250264197109919800E-017, 0.7390184407807254300 ) ) ;
#122 = CARTESIAN_POINT ( 'NONE',  ( -25.39999999999999900, 3.110602869834276900E-015, 2.700000000000000200 ) ) ;
#123 = CARTESIAN_POINT ( 'NONE',  ( 0.0000000000000000000, 0.0000000000000000000, 272.5000000000000000 ) ) ;
#124 = ORIENTED_EDGE ( 'NONE', *, *, #117, .T. ) ;
#125 = CIRCLE ( 'NONE', #81, 25.39999999999999900 ) ;
#126 = LOCAL_TIME ( 16, 48, 39.00000000000000000, #314 ) ;
#127 = EDGE_CURVE ( 'NONE', #130, #246, #224, .T. ) ;
#128 = DIRECTION ( 'NONE',  ( -1.000000000000000000, 0.0000000000000000000, 0.0000000000000000000 ) ) ;
#129 = FACE_OUTER_BOUND ( 'NONE', #159, .T. ) ;
#130 = VERTEX_POINT ( 'NONE', #104 ) ;
#131 = CARTESIAN_POINT ( 'NONE',  ( -25.39999999999999900, 3.110602869834276900E-015, -1.275327296584027900 ) ) ;
#132 = APPROVAL ( #105, 'UNSPECIFIED' ) ;
#133 = DIRECTION ( 'NONE',  ( 1.000000000000000000, -0.0000000000000000000, 0.0000000000000000000 ) ) ;
#134 = FACE_OUTER_BOUND ( 'NONE', #225, .T. ) ;
#135 = ORIENTED_EDGE ( 'NONE', *, *, #23, .T. ) ;
#136 = FACE_OUTER_BOUND ( 'NONE', #145, .T. ) ;
#137 = CARTESIAN_POINT ( 'NONE',  ( 25.39999999999999900, 0.0000000000000000000, -1.275327296584027900 ) ) ;
#138 = APPROVAL_PERSON_ORGANIZATION ( #192, #132, #326 ) ;
#139 = ORIENTED_EDGE ( 'NONE', *, *, #201, .F. ) ;
#140 = FACE_OUTER_BOUND ( 'NONE', #328, .T. ) ;
#141 = DIRECTION ( 'NONE',  ( -1.000000000000000000, 0.0000000000000000000, 0.0000000000000000000 ) ) ;
#142 = EDGE_CURVE ( 'NONE', #257, #94, #56, .T. ) ;
#143 = DATE_TIME_ROLE ( 'creation_date' ) ;
#144 = ADVANCED_FACE ( 'NONE', ( #80 ), #359, .T. ) ;
#145 = EDGE_LOOP ( 'NONE', ( #101, #283, #85, #268 ) ) ;
#146 = PERSON_AND_ORGANIZATION ( #158, #154 ) ;
#147 = VERTEX_POINT ( 'NONE', #50 ) ;
#148 = COORDINATED_UNIVERSAL_TIME_OFFSET ( 5, 0, .BEHIND. ) ;
#149 = DIRECTION ( 'NONE',  ( 0.0000000000000000000, 0.0000000000000000000, -1.000000000000000000 ) ) ;
#150 = CC_DESIGN_APPROVAL ( #132, ( #249 ) ) ;
#151 = ADVANCED_FACE ( 'NONE', ( #6 ), #237, .T. ) ;
#152 = DIRECTION ( 'NONE',  ( -0.0000000000000000000, -0.0000000000000000000, 1.000000000000000000 ) ) ;
#153 = CARTESIAN_POINT ( 'NONE',  ( 0.0000000000000000000, 0.0000000000000000000, -1.548276982345775400 ) ) ;
#154 = ORGANIZATION ( 'UNSPECIFIED', 'UNSPECIFIED', '' ) ;
#155 = PERSON_AND_ORGANIZATION ( #158, #154 ) ;
#156 = DIRECTION ( 'NONE',  ( -0.0000000000000000000, -0.0000000000000000000, 1.000000000000000000 ) ) ;
#157 = DIRECTION ( 'NONE',  ( 0.0000000000000000000, 0.0000000000000000000, -1.000000000000000000 ) ) ;
#158 = PERSON ( 'UNSPECIFIED', 'UNSPECIFIED', 'UNSPECIFIED', ('UNSPECIFIED'), ('UNSPECIFIED'), ('UNSPECIFIED') ) ;
#159 = EDGE_LOOP ( 'NONE', ( #135, #54, #124, #286 ) ) ;
#160 = DIRECTION ( 'NONE',  ( -0.0000000000000000000, -0.0000000000000000000, 1.000000000000000000 ) ) ;
#161 = VERTEX_POINT ( 'NONE', #100 ) ;
#162 = CARTESIAN_POINT ( 'NONE',  ( 0.0000000000000000000, 0.0000000000000000000, -272.5000000000000000 ) ) ;
#163 =( LENGTH_UNIT ( ) NAMED_UNIT ( * ) SI_UNIT ( .MILLI., .METRE. ) );
#164 = CIRCLE ( 'NONE', #213, 275.2000000000000500 ) ;
#165 = LINE ( 'NONE', #169, #291 ) ;
#166 = CARTESIAN_POINT ( 'NONE',  ( -25.39999999999999900, 3.110602869834276100E-015, -1.275327296584027900 ) ) ;
#167 = CARTESIAN_POINT ( 'NONE',  ( 0.0000000000000000000, 1.685113995626757900E-014, -2.699999999999980200 ) ) ;
#168 = VECTOR ( 'NONE', #121, 1000.000000000000200 ) ;
#169 = CARTESIAN_POINT ( 'NONE',  ( 25.15118054898068700, 3.080131275408636200E-015, 1.548276982345886400 ) ) ;
#170 = CARTESIAN_POINT ( 'NONE',  ( 25.39999999999999900, 0.0000000000000000000, -1.275327296584027900 ) ) ;
#171 = CIRCLE ( 'NONE', #322, 275.1999999999999900 ) ;
#172 = DIRECTION ( 'NONE',  ( 0.0000000000000000000, 0.0000000000000000000, -1.000000000000000000 ) ) ;
#173 = VECTOR ( 'NONE', #160, 1000.000000000000000 ) ;
#174 = DIRECTION ( 'NONE',  ( -0.6736851966505788000, 0.0000000000000000000, -0.7390184407806552600 ) ) ;
#175 = CARTESIAN_POINT ( 'NONE',  ( 0.0000000000000000000, 0.0000000000000000000, -1.275327296584027900 ) ) ;
#176 = CARTESIAN_POINT ( 'NONE',  ( 0.0000000000000000000, 0.0000000000000000000, -1.275327296584027900 ) ) ;
#177 = CIRCLE ( 'NONE', #31, 25.15118054898075100 ) ;
#178 = EDGE_LOOP ( 'NONE', ( #296, #301, #216, #353 ) ) ;
#179 = DIRECTION ( 'NONE',  ( -1.000000000000000000, 0.0000000000000000000, 0.0000000000000000000 ) ) ;
#180 = ADVANCED_FACE ( 'NONE', ( #129 ), #205, .T. ) ;
#181 = DIRECTION ( 'NONE',  ( -1.000000000000000000, 0.0000000000000000000, 0.0000000000000000000 ) ) ;
#182 = APPROVAL_ROLE ( '' ) ;
#183 = APPLICATION_PROTOCOL_DEFINITION ( 'international standard', 'config_control_design', 1994, #366 ) ;
#184 = VERTEX_POINT ( 'NONE', #170 ) ;
#185 = CLOSED_SHELL ( 'NONE', ( #30, #5, #144, #180, #115, #261, #258, #151, #276, #53 ) ) ;
#186 = CARTESIAN_POINT ( 'NONE',  ( 25.39999999999999900, 0.0000000000000000000, 2.700000000000000200 ) ) ;
#187 = ORIENTED_EDGE ( 'NONE', *, *, #7, .T. ) ;
#188 = CARTESIAN_POINT ( 'NONE',  ( 0.0000000000000000000, 0.0000000000000000000, -272.5000000000000000 ) ) ;
#189 = COORDINATED_UNIVERSAL_TIME_OFFSET ( 5, 0, .BEHIND. ) ;
#190 = ORIENTED_EDGE ( 'NONE', *, *, #218, .T. ) ;
#191 = DIRECTION ( 'NONE',  ( -1.000000000000000000, 0.0000000000000000000, 0.0000000000000000000 ) ) ;
#192 = PERSON_AND_ORGANIZATION ( #158, #154 ) ;
#193 = AXIS2_PLACEMENT_3D ( 'NONE', #339, #99, #59 ) ;
#194 = ORIENTED_EDGE ( 'NONE', *, *, #77, .F. ) ;
#195 = CARTESIAN_POINT ( 'NONE',  ( 0.0000000000000000000, 0.0000000000000000000, 2.700000000000000200 ) ) ;
#196 = DIRECTION ( 'NONE',  ( 1.000000000000000000, 0.0000000000000000000, 0.0000000000000000000 ) ) ;
#197 = AXIS2_PLACEMENT_3D ( 'NONE', #203, #204, #141 ) ;
#198 = LINE ( 'NONE', #186, #345 ) ;
#199 = LOCAL_TIME ( 16, 48, 39.00000000000000000, #189 ) ;
#200 = PERSON_AND_ORGANIZATION ( #158, #154 ) ;
#201 = EDGE_CURVE ( 'NONE', #130, #87, #48, .T. ) ;
#202 = CARTESIAN_POINT ( 'NONE',  ( 0.0000000000000000000, 1.685113995626757900E-014, 2.699999999999980200 ) ) ;
#203 = CARTESIAN_POINT ( 'NONE',  ( 0.0000000000000000000, 0.0000000000000000000, 1.548276982345775400 ) ) ;
#204 = DIRECTION ( 'NONE',  ( -0.0000000000000000000, -0.0000000000000000000, 1.000000000000000000 ) ) ;
#205 = CYLINDRICAL_SURFACE ( 'NONE', #193, 25.39999999999999900 ) ;
#206 = CARTESIAN_POINT ( 'NONE',  ( 0.0000000000000000000, 0.0000000000000000000, -1.548276982345775400 ) ) ;
#207 = EDGE_LOOP ( 'NONE', ( #315, #57, #232, #248, #217 ) ) ;
#208 = CONICAL_SURFACE ( 'NONE', #15, 25.15118054898068700, 0.7391841350288244100 ) ;
#209 = DIRECTION ( 'NONE',  ( -0.0000000000000000000, -0.0000000000000000000, 1.000000000000000000 ) ) ;
#210 = ORIENTED_EDGE ( 'NONE', *, *, #110, .T. ) ;
#211 = AXIS2_PLACEMENT_3D ( 'NONE', #90, #191, #221 ) ;
#212 = DIRECTION ( 'NONE',  ( -1.000000000000000000, 1.224646799147353200E-016, 0.0000000000000000000 ) ) ;
#213 = AXIS2_PLACEMENT_3D ( 'NONE', #228, #133, #269 ) ;
#214 = CIRCLE ( 'NONE', #251, 25.15118054898069400 ) ;
#215 = EDGE_LOOP ( 'NONE', ( #70, #241, #334, #239 ) ) ;
#216 = ORIENTED_EDGE ( 'NONE', *, *, #92, .T. ) ;
#217 = ORIENTED_EDGE ( 'NONE', *, *, #337, .F. ) ;
#218 = EDGE_CURVE ( 'NONE', #94, #360, #164, .T. ) ;
#219 = CARTESIAN_POINT ( 'NONE',  ( -25.39999999999999900, 3.110602869834276900E-015, 1.275327296584027900 ) ) ;
#220 = LINE ( 'NONE', #137, #274 ) ;
#221 = DIRECTION ( 'NONE',  ( 0.0000000000000000000, 1.000000000000000000, 0.0000000000000000000 ) ) ;
#222 = CARTESIAN_POINT ( 'NONE',  ( 0.0000000000000000000, 0.0000000000000000000, 0.0000000000000000000 ) ) ;
#223 = ORIENTED_EDGE ( 'NONE', *, *, #142, .T. ) ;
#224 = LINE ( 'NONE', #166, #168 ) ;
#225 = EDGE_LOOP ( 'NONE', ( #139, #342, #20, #242, #103 ) ) ;
#226 = AXIS2_PLACEMENT_3D ( 'NONE', #153, #157, #71 ) ;
#227 = VERTEX_POINT ( 'NONE', #167 ) ;
#228 = CARTESIAN_POINT ( 'NONE',  ( 0.0000000000000000000, 0.0000000000000000000, -272.5000000000000000 ) ) ;
#229 = CARTESIAN_POINT ( 'NONE',  ( 0.0000000000000000000, 25.15118054898123700, 1.548276982345747600 ) ) ;
#230 = APPROVAL_PERSON_ORGANIZATION ( #200, #361, #355 ) ;
#231 = DIRECTION ( 'NONE',  ( 0.0000000000000000000, 0.0000000000000000000, -1.000000000000000000 ) ) ;
#232 = ORIENTED_EDGE ( 'NONE', *, *, #117, .F. ) ;
#233 = CC_DESIGN_PERSON_AND_ORGANIZATION_ASSIGNMENT ( #343, #72, ( #249 ) ) ;
#234 = CYLINDRICAL_SURFACE ( 'NONE', #311, 25.39999999999999900 ) ;
#235 = EDGE_CURVE ( 'NONE', #161, #257, #247, .T. ) ;
#236 = AXIS2_PLACEMENT_3D ( 'NONE', #222, #277, #362 ) ;
#237 = SPHERICAL_SURFACE ( 'NONE', #302, 275.1999999999999900 ) ;
#238 = CARTESIAN_POINT ( 'NONE',  ( 0.0000000000000000000, 0.0000000000000000000, 1.548276982345775400 ) ) ;
#239 = ORIENTED_EDGE ( 'NONE', *, *, #218, .F. ) ;
#240 = DIRECTION ( 'NONE',  ( -0.0000000000000000000, -0.0000000000000000000, 1.000000000000000000 ) ) ;
#241 = ORIENTED_EDGE ( 'NONE', *, *, #256, .T. ) ;
#242 = ORIENTED_EDGE ( 'NONE', *, *, #66, .F. ) ;
#243 = DIRECTION ( 'NONE',  ( 1.000000000000000000, 0.0000000000000000000, 0.0000000000000000000 ) ) ;
#244 = AXIS2_PLACEMENT_3D ( 'NONE', #206, #52, #196 ) ;
#245 = AXIS2_PLACEMENT_3D ( 'NONE', #298, #255, #262 ) ;
#246 = VERTEX_POINT ( 'NONE', #131 ) ;
#247 = CIRCLE ( 'NONE', #58, 25.15118054898069400 ) ;
#248 = ORIENTED_EDGE ( 'NONE', *, *, #7, .F. ) ;
#249 = SECURITY_CLASSIFICATION ( '', '', #76 ) ;
#250 = AXIS2_PLACEMENT_3D ( 'NONE', #175, #156, #331 ) ;
#251 = AXIS2_PLACEMENT_3D ( 'NONE', #238, #348, #128 ) ;
#252 = ORIENTED_EDGE ( 'NONE', *, *, #320, .T. ) ;
#253 = DIRECTION ( 'NONE',  ( 0.6736851966505018600, 0.0000000000000000000, 0.7390184407807254300 ) ) ;
#254 = APPROVAL_DATE_TIME ( #270, #361 ) ;
#255 = DIRECTION ( 'NONE',  ( -1.000000000000000000, 0.0000000000000000000, 0.0000000000000000000 ) ) ;
#256 = EDGE_CURVE ( 'NONE', #106, #161, #19, .T. ) ;
#257 = VERTEX_POINT ( 'NONE', #332 ) ;
#258 = ADVANCED_FACE ( 'NONE', ( #136 ), #234, .T. ) ;
#259 = VECTOR ( 'NONE', #174, 1000.000000000000100 ) ;
#260 = SPHERICAL_SURFACE ( 'NONE', #211, 275.1999999999999900 ) ;
#261 = ADVANCED_FACE ( 'NONE', ( #95 ), #84, .T. ) ;
#262 = DIRECTION ( 'NONE',  ( 0.0000000000000000000, 1.000000000000000000, 0.0000000000000000000 ) ) ;
#263 = CC_DESIGN_APPROVAL ( #9, ( #312 ) ) ;
#264 = AXIS2_PLACEMENT_3D ( 'NONE', #61, #324, #243 ) ;
#265 = VERTEX_POINT ( 'NONE', #271 ) ;
#266 = CARTESIAN_POINT ( 'NONE',  ( 0.0000000000000000000, 0.0000000000000000000, -1.275327296584027900 ) ) ;
#267 = CARTESIAN_POINT ( 'NONE',  ( 0.0000000000000000000, 0.0000000000000000000, 272.5000000000000000 ) ) ;
#268 = ORIENTED_EDGE ( 'NONE', *, *, #77, .T. ) ;
#269 = DIRECTION ( 'NONE',  ( 0.0000000000000000000, 0.0000000000000000000, -1.000000000000000000 ) ) ;
#270 = DATE_AND_TIME ( #24, #335 ) ;
#271 = CARTESIAN_POINT ( 'NONE',  ( 25.15118054898075100, 0.0000000000000000000, -1.548276982345775400 ) ) ;
#272 = CC_DESIGN_PERSON_AND_ORGANIZATION_ASSIGNMENT ( #146, #79, ( #312 ) ) ;
#273 = DIRECTION ( 'NONE',  ( -1.000000000000000000, 0.0000000000000000000, 0.0000000000000000000 ) ) ;
#274 = VECTOR ( 'NONE', #253, 1000.000000000000200 ) ;
#275 = AXIS2_PLACEMENT_3D ( 'NONE', #266, #116, #281 ) ;
#276 = ADVANCED_FACE ( 'NONE', ( #140 ), #74, .T. ) ;
#277 = DIRECTION ( 'NONE',  ( 0.0000000000000000000, 0.0000000000000000000, 1.000000000000000000 ) ) ;
#278 = ORIENTED_EDGE ( 'NONE', *, *, #256, .F. ) ;
#279 = EDGE_CURVE ( 'NONE', #227, #87, #171, .T. ) ;
#280 = CALENDAR_DATE ( 2015, 17, 6 ) ;
#281 = DIRECTION ( 'NONE',  ( 1.000000000000000000, 0.0000000000000000000, 0.0000000000000000000 ) ) ;
#282 = DIRECTION ( 'NONE',  ( -1.000000000000000000, 0.0000000000000000000, 0.0000000000000000000 ) ) ;
#283 = ORIENTED_EDGE ( 'NONE', *, *, #292, .T. ) ;
#284 = APPROVAL_PERSON_ORGANIZATION ( #155, #9, #182 ) ;
#285 = DIRECTION ( 'NONE',  ( 1.000000000000000000, 0.0000000000000000000, 0.0000000000000000000 ) ) ;
#286 = ORIENTED_EDGE ( 'NONE', *, *, #33, .F. ) ;
#287 = VERTEX_POINT ( 'NONE', #219 ) ;
#288 = CARTESIAN_POINT ( 'NONE',  ( 0.0000000000000000000, 0.0000000000000000000, 1.548276982345775400 ) ) ;
#289 = CARTESIAN_POINT ( 'NONE',  ( 0.0000000000000000000, 0.0000000000000000000, 1.548276982345775400 ) ) ;
#290 = LOCAL_TIME ( 16, 48, 39.00000000000000000, #148 ) ;
#291 = VECTOR ( 'NONE', #93, 1000.000000000000100 ) ;
#292 = EDGE_CURVE ( 'NONE', #246, #184, #41, .T. ) ;
#293 = CC_DESIGN_PERSON_AND_ORGANIZATION_ASSIGNMENT ( #113, #330, ( #312 ) ) ;
#294 = AXIS2_PLACEMENT_3D ( 'NONE', #176, #152, #285 ) ;
#295 =( GEOMETRIC_REPRESENTATION_CONTEXT ( 3 ) GLOBAL_UNCERTAINTY_ASSIGNED_CONTEXT ( ( #318 ) ) GLOBAL_UNIT_ASSIGNED_CONTEXT ( ( #163, #14, #356 ) ) REPRESENTATION_CONTEXT ( 'NONE', 'WORKASPACE' ) );
#296 = ORIENTED_EDGE ( 'NONE', *, *, #320, .F. ) ;
#297 = DATE_AND_TIME ( #21, #300 ) ;
#298 = CARTESIAN_POINT ( 'NONE',  ( 0.0000000000000000000, 0.0000000000000000000, 272.5000000000000000 ) ) ;
#299 = CC_DESIGN_PERSON_AND_ORGANIZATION_ASSIGNMENT ( #349, #352, ( #109 ) ) ;
#300 = LOCAL_TIME ( 16, 48, 39.00000000000000000, #309 ) ;
#301 = ORIENTED_EDGE ( 'NONE', *, *, #279, .T. ) ;
#302 = AXIS2_PLACEMENT_3D ( 'NONE', #123, #181, #308 ) ;
#303 = DATE_AND_TIME ( #280, #290 ) ;
#304 = CC_DESIGN_DATE_AND_TIME_ASSIGNMENT ( #297, #143, ( #340 ) ) ;
#305 = AXIS2_PLACEMENT_3D ( 'NONE', #98, #10, #17 ) ;
#306 = ORIENTED_EDGE ( 'NONE', *, *, #86, .F. ) ;
#307 = AXIS2_PLACEMENT_3D ( 'NONE', #162, #341, #102 ) ;
#308 = DIRECTION ( 'NONE',  ( 0.0000000000000000000, 1.000000000000000000, 0.0000000000000000000 ) ) ;
#309 = COORDINATED_UNIVERSAL_TIME_OFFSET ( 5, 0, .BEHIND. ) ;
#310 = VERTEX_POINT ( 'NONE', #3 ) ;
#311 = AXIS2_PLACEMENT_3D ( 'NONE', #195, #25, #82 ) ;
#312 = PRODUCT_DEFINITION_FORMATION_WITH_SPECIFIED_SOURCE ( 'ANY', '', #109, .NOT_KNOWN. ) ;
#313 = APPROVAL_DATE_TIME ( #303, #132 ) ;
#314 = COORDINATED_UNIVERSAL_TIME_OFFSET ( 5, 0, .BEHIND. ) ;
#315 = ORIENTED_EDGE ( 'NONE', *, *, #142, .F. ) ;
#316 = DIRECTION ( 'NONE',  ( 1.000000000000000000, 0.0000000000000000000, 0.0000000000000000000 ) ) ;
#317 = DESIGN_CONTEXT ( 'detailed design', #363, 'design' ) ;
#318 = UNCERTAINTY_MEASURE_WITH_UNIT (LENGTH_MEASURE( 1.000000000000000100E-005 ), #163, 'distance_accuracy_value', 'NONE');
#319 = CIRCLE ( 'NONE', #244, 25.15118054898075100 ) ;
#320 = EDGE_CURVE ( 'NONE', #227, #310, #107, .T. ) ;
#321 = PERSON_AND_ORGANIZATION ( #158, #154 ) ;
#322 = AXIS2_PLACEMENT_3D ( 'NONE', #267, #316, #1 ) ;
#323 = ORIENTED_EDGE ( 'NONE', *, *, #279, .F. ) ;
#324 = DIRECTION ( 'NONE',  ( 0.0000000000000000000, 0.0000000000000000000, -1.000000000000000000 ) ) ;
#325 = FACE_OUTER_BOUND ( 'NONE', #215, .T. ) ;
#326 = APPROVAL_ROLE ( '' ) ;
#327 = LINE ( 'NONE', #122, #173 ) ;
#328 = EDGE_LOOP ( 'NONE', ( #42, #55, #306, #29, #350 ) ) ;
#329 = DATE_AND_TIME ( #12, #126 ) ;
#330 = PERSON_AND_ORGANIZATION_ROLE ( 'creator' ) ;
#331 = DIRECTION ( 'NONE',  ( 1.000000000000000000, 0.0000000000000000000, 0.0000000000000000000 ) ) ;
#332 = CARTESIAN_POINT ( 'NONE',  ( 25.15118054898069400, 3.095367072621456800E-015, 1.548276982345775400 ) ) ;
#333 = PERSON_AND_ORGANIZATION_ROLE ( 'creator' ) ;
#334 = ORIENTED_EDGE ( 'NONE', *, *, #120, .T. ) ;
#335 = LOCAL_TIME ( 16, 48, 39.00000000000000000, #96 ) ;
#336 = SHAPE_DEFINITION_REPRESENTATION ( #46, #43 ) ;
#337 = EDGE_CURVE ( 'NONE', #94, #106, #214, .T. ) ;
#338 = MECHANICAL_CONTEXT ( 'NONE', #366, 'mechanical' ) ;
#339 = CARTESIAN_POINT ( 'NONE',  ( 0.0000000000000000000, 0.0000000000000000000, 2.700000000000000200 ) ) ;
#340 = PRODUCT_DEFINITION ( 'UNKNOWN', '', #312, #317 ) ;
#341 = DIRECTION ( 'NONE',  ( -1.000000000000000000, 0.0000000000000000000, 0.0000000000000000000 ) ) ;
#342 = ORIENTED_EDGE ( 'NONE', *, *, #127, .T. ) ;
#343 = PERSON_AND_ORGANIZATION ( #158, #154 ) ;
#344 = APPROVAL_STATUS ( 'not_yet_approved' ) ;
#345 = VECTOR ( 'NONE', #209, 1000.000000000000000 ) ;
#346 = APPROVAL_DATE_TIME ( #329, #9 ) ;
#347 = APPLICATION_PROTOCOL_DEFINITION ( 'international standard', 'config_control_design', 1994, #363 ) ;
#348 = DIRECTION ( 'NONE',  ( -0.0000000000000000000, -0.0000000000000000000, 1.000000000000000000 ) ) ;
#349 = PERSON_AND_ORGANIZATION ( #158, #154 ) ;
#350 = ORIENTED_EDGE ( 'NONE', *, *, #292, .F. ) ;
#351 = APPROVAL_STATUS ( 'not_yet_approved' ) ;
#352 = PERSON_AND_ORGANIZATION_ROLE ( 'design_owner' ) ;
#353 = ORIENTED_EDGE ( 'NONE', *, *, #86, .T. ) ;
#354 = DATE_AND_TIME ( #45, #199 ) ;
#355 = APPROVAL_ROLE ( '' ) ;
#356 =( NAMED_UNIT ( * ) SI_UNIT ( $, .STERADIAN. ) SOLID_ANGLE_UNIT ( ) );
#357 = CONICAL_SURFACE ( 'NONE', #39, 25.15118054898068700, 0.7391841350288244100 ) ;
#358 = DIRECTION ( 'NONE',  ( -1.000000000000000000, 0.0000000000000000000, 0.0000000000000000000 ) ) ;
#359 = SPHERICAL_SURFACE ( 'NONE', #245, 275.1999999999999900 ) ;
#360 = VERTEX_POINT ( 'NONE', #202 ) ;
#361 = APPROVAL ( #351, 'UNSPECIFIED' ) ;
#362 = DIRECTION ( 'NONE',  ( 1.000000000000000000, 0.0000000000000000000, 0.0000000000000000000 ) ) ;
#363 = APPLICATION_CONTEXT ( 'configuration controlled 3d designs of mechanical parts and assemblies' ) ;
#364 = AXIS2_PLACEMENT_3D ( 'NONE', #188, #34, #89 ) ;
#365 = ORIENTED_EDGE ( 'NONE', *, *, #120, .F. ) ;
#366 = APPLICATION_CONTEXT ( 'configuration controlled 3d designs of mechanical parts and assemblies' ) ;
#367 = FACE_OUTER_BOUND ( 'NONE', #75, .T. ) ;
ENDSEC;
END-ISO-10303-21;
