ISO-10303-21;
HEADER;
FILE_DESCRIPTION (( 'STEP AP203' ),
    '1' );
FILE_NAME ('Web Model 20164_20167.step',
    '2022-03-23T13:19:10',
    ( '' ),
    ( '' ),
    'SwSTEP 2.0',
    'SolidWorks 2021',
    '' );
FILE_SCHEMA (( 'CONFIG_CONTROL_DESIGN' ));
ENDSEC;

DATA;
#1 = DIRECTION ( 'NONE',  ( 0.000000000000000000, 0.000000000000000000, 1.000000000000000000 ) ) ;
#2 = FACE_OUTER_BOUND ( 'NONE', #39, .T. ) ;
#3 = APPLICATION_PROTOCOL_DEFINITION ( 'international standard', 'config_control_design', 1994, #133 ) ;
#4 = PERSON_AND_ORGANIZATION ( #10, #80 ) ;
#5 = PERSON_AND_ORGANIZATION ( #10, #80 ) ;
#6 = EDGE_CURVE ( 'NONE', #67, #57, #33, .T. ) ;
#7 = APPROVAL_DATE_TIME ( #166, #171 ) ;
#8 = APPLICATION_PROTOCOL_DEFINITION ( 'international standard', 'config_control_design', 1994, #137 ) ;
#9 = ORIENTED_EDGE ( 'NONE', *, *, #156, .T. ) ;
#10 = PERSON ( 'UNSPECIFIED', 'UNSPECIFIED', 'UNSPECIFIED', ('UNSPECIFIED'), ('UNSPECIFIED'), ('UNSPECIFIED') ) ;
#11 = APPROVAL_PERSON_ORGANIZATION ( #5, #22, #121 ) ;
#12 = FACE_OUTER_BOUND ( 'NONE', #43, .T. ) ;
#13 = CARTESIAN_POINT ( 'NONE',  ( -2.499999999999999556, 0.000000000000000000, 0.000000000000000000 ) ) ;
#14 =( NAMED_UNIT ( * ) PLANE_ANGLE_UNIT ( ) SI_UNIT ( $, .RADIAN. ) );
#15 = EDGE_CURVE ( 'NONE', #141, #124, #105, .T. ) ;
#16 = CARTESIAN_POINT ( 'NONE',  ( 0.000000000000000000, 0.000000000000000000, 0.000000000000000000 ) ) ;
#17 = PRODUCT_DEFINITION_SHAPE ( 'NONE', 'NONE',  #113 ) ;
#18 = APPROVAL_STATUS ( 'not_yet_approved' ) ;
#19 = DATE_TIME_ROLE ( 'classification_date' ) ;
#20 = APPROVAL_STATUS ( 'not_yet_approved' ) ;
#21 = CALENDAR_DATE ( 2022, 23, 3 ) ;
#22 = APPROVAL ( #53, 'UNSPECIFIED' ) ;
#23 =( GEOMETRIC_REPRESENTATION_CONTEXT ( 3 ) GLOBAL_UNCERTAINTY_ASSIGNED_CONTEXT ( ( #66 ) ) GLOBAL_UNIT_ASSIGNED_CONTEXT ( ( #72, #14, #157 ) ) REPRESENTATION_CONTEXT ( 'NONE', 'WORKASPACE' ) );
#24 = MANIFOLD_SOLID_BREP ( 'Boss-Extrude1', #112 ) ;
#25 = ADVANCED_FACE ( 'NONE', ( #2 ), #107, .F. ) ;
#26 = ORIENTED_EDGE ( 'NONE', *, *, #156, .F. ) ;
#27 = CC_DESIGN_SECURITY_CLASSIFICATION ( #116, ( #29 ) ) ;
#28 = CARTESIAN_POINT ( 'NONE',  ( 0.000000000000000000, 0.000000000000000000, 1.000000000000000000 ) ) ;
#29 = PRODUCT_DEFINITION_FORMATION_WITH_SPECIFIED_SOURCE ( 'ANY', '', #158, .NOT_KNOWN. ) ;
#30 = DIRECTION ( 'NONE',  ( 0.000000000000000000, 0.000000000000000000, 1.000000000000000000 ) ) ;
#31 = LINE ( 'NONE', #103, #152 ) ;
#32 = DATE_AND_TIME ( #120, #130 ) ;
#33 = CIRCLE ( 'NONE', #125, 2.499999999999999556 ) ;
#34 = APPROVAL_ROLE ( '' ) ;
#35 = CALENDAR_DATE ( 2022, 23, 3 ) ;
#36 = DATE_AND_TIME ( #21, #83 ) ;
#37 = AXIS2_PLACEMENT_3D ( 'NONE', #47, #87, #115 ) ;
#38 = PERSON_AND_ORGANIZATION ( #10, #80 ) ;
#39 = EDGE_LOOP ( 'NONE', ( #55, #26 ) ) ;
#40 = AXIS2_PLACEMENT_3D ( 'NONE', #28, #30, #93 ) ;
#41 = EDGE_CURVE ( 'NONE', #124, #57, #31, .T. ) ;
#42 = EDGE_LOOP ( 'NONE', ( #79, #173 ) ) ;
#43 = EDGE_LOOP ( 'NONE', ( #126, #68, #84, #174 ) ) ;
#44 = AXIS2_PLACEMENT_3D ( 'NONE', #48, #96, #143 ) ;
#45 = CARTESIAN_POINT ( 'NONE',  ( 0.000000000000000000, 0.000000000000000000, 0.000000000000000000 ) ) ;
#46 = DIRECTION ( 'NONE',  ( -1.000000000000000000, 0.000000000000000000, 0.000000000000000000 ) ) ;
#47 = CARTESIAN_POINT ( 'NONE',  ( 0.000000000000000000, 0.000000000000000000, 1.000000000000000000 ) ) ;
#48 = CARTESIAN_POINT ( 'NONE',  ( 0.000000000000000000, 0.000000000000000000, 1.000000000000000000 ) ) ;
#49 = DATE_AND_TIME ( #35, #161 ) ;
#50 = CIRCLE ( 'NONE', #101, 2.499999999999999556 ) ;
#51 = CALENDAR_DATE ( 2022, 23, 3 ) ;
#52 = CALENDAR_DATE ( 2022, 23, 3 ) ;
#53 = APPROVAL_STATUS ( 'not_yet_approved' ) ;
#54 = VECTOR ( 'NONE', #104, 1000.000000000000000 ) ;
#55 = ORIENTED_EDGE ( 'NONE', *, *, #6, .F. ) ;
#56 = LOCAL_TIME ( 9, 19, 10.00000000000000000, #75 ) ;
#57 = VERTEX_POINT ( 'NONE', #129 ) ;
#58 = LINE ( 'NONE', #59, #54 ) ;
#59 = CARTESIAN_POINT ( 'NONE',  ( -2.499999999999999556, 0.000000000000000000, 1.000000000000000000 ) ) ;
#60 = EDGE_CURVE ( 'NONE', #124, #141, #127, .T. ) ;
#61 = CARTESIAN_POINT ( 'NONE',  ( 0.000000000000000000, 0.000000000000000000, 0.000000000000000000 ) ) ;
#62 = AXIS2_PLACEMENT_3D ( 'NONE', #106, #128, #159 ) ;
#63 = CC_DESIGN_PERSON_AND_ORGANIZATION_ASSIGNMENT ( #151, #88, ( #29 ) ) ;
#64 = DIRECTION ( 'NONE',  ( -0.000000000000000000, -0.000000000000000000, -1.000000000000000000 ) ) ;
#65 = PERSON_AND_ORGANIZATION ( #10, #80 ) ;
#66 = UNCERTAINTY_MEASURE_WITH_UNIT (LENGTH_MEASURE( 1.000000000000000082E-05 ), #72, 'distance_accuracy_value', 'NONE');
#67 = VERTEX_POINT ( 'NONE', #13 ) ;
#68 = ORIENTED_EDGE ( 'NONE', *, *, #15, .F. ) ;
#69 = CARTESIAN_POINT ( 'NONE',  ( 0.000000000000000000, 0.000000000000000000, 1.000000000000000000 ) ) ;
#70 = PLANE ( 'NONE',  #40 ) ;
#71 = DIRECTION ( 'NONE',  ( 1.000000000000000000, 0.000000000000000000, 0.000000000000000000 ) ) ;
#72 =( LENGTH_UNIT ( ) NAMED_UNIT ( * ) SI_UNIT ( .MILLI., .METRE. ) );
#73 = AXIS2_PLACEMENT_3D ( 'NONE', #132, #134, #46 ) ;
#74 = DIRECTION ( 'NONE',  ( 1.000000000000000000, 0.000000000000000000, 0.000000000000000000 ) ) ;
#75 = COORDINATED_UNIVERSAL_TIME_OFFSET ( 5, 0, .BEHIND. ) ;
#76 = CC_DESIGN_APPROVAL ( #22, ( #113 ) ) ;
#77 = APPROVAL_ROLE ( '' ) ;
#78 = CC_DESIGN_DATE_AND_TIME_ASSIGNMENT ( #49, #19, ( #116 ) ) ;
#79 = ORIENTED_EDGE ( 'NONE', *, *, #15, .T. ) ;
#80 = ORGANIZATION ( 'UNSPECIFIED', 'UNSPECIFIED', '' ) ;
#81 = EDGE_CURVE ( 'NONE', #141, #67, #58, .T. ) ;
#82 = ORIENTED_EDGE ( 'NONE', *, *, #60, .F. ) ;
#83 = LOCAL_TIME ( 9, 19, 10.00000000000000000, #147 ) ;
#84 = ORIENTED_EDGE ( 'NONE', *, *, #81, .T. ) ;
#85 = FACE_OUTER_BOUND ( 'NONE', #102, .T. ) ;
#86 = DIRECTION ( 'NONE',  ( 0.000000000000000000, 0.000000000000000000, 1.000000000000000000 ) ) ;
#87 = DIRECTION ( 'NONE',  ( 0.000000000000000000, 0.000000000000000000, 1.000000000000000000 ) ) ;
#88 = PERSON_AND_ORGANIZATION_ROLE ( 'design_supplier' ) ;
#89 = PERSON_AND_ORGANIZATION_ROLE ( 'creator' ) ;
#90 = SHAPE_DEFINITION_REPRESENTATION ( #17, #142 ) ;
#91 = ORIENTED_EDGE ( 'NONE', *, *, #41, .T. ) ;
#92 = CARTESIAN_POINT ( 'NONE',  ( -2.499999999999999556, 0.000000000000000000, 1.000000000000000000 ) ) ;
#93 = DIRECTION ( 'NONE',  ( 1.000000000000000000, 0.000000000000000000, -0.000000000000000000 ) ) ;
#94 = DIRECTION ( 'NONE',  ( -1.000000000000000000, 0.000000000000000000, 0.000000000000000000 ) ) ;
#95 = ADVANCED_FACE ( 'NONE', ( #12 ), #146, .T. ) ;
#96 = DIRECTION ( 'NONE',  ( 0.000000000000000000, 0.000000000000000000, 1.000000000000000000 ) ) ;
#97 = COORDINATED_UNIVERSAL_TIME_OFFSET ( 5, 0, .BEHIND. ) ;
#98 = APPROVAL_PERSON_ORGANIZATION ( #153, #171, #34 ) ;
#99 = DIRECTION ( 'NONE',  ( 0.000000000000000000, 0.000000000000000000, 1.000000000000000000 ) ) ;
#100 = DATE_TIME_ROLE ( 'creation_date' ) ;
#101 = AXIS2_PLACEMENT_3D ( 'NONE', #16, #86, #162 ) ;
#102 = EDGE_LOOP ( 'NONE', ( #82, #91, #9, #139 ) ) ;
#103 = CARTESIAN_POINT ( 'NONE',  ( 2.499999999999999556, 3.061616997868382648E-16, 1.000000000000000000 ) ) ;
#104 = DIRECTION ( 'NONE',  ( -0.000000000000000000, -0.000000000000000000, -1.000000000000000000 ) ) ;
#105 = CIRCLE ( 'NONE', #44, 2.499999999999999556 ) ;
#106 = CARTESIAN_POINT ( 'NONE',  ( 0.000000000000000000, 0.000000000000000000, 0.000000000000000000 ) ) ;
#107 = PLANE ( 'NONE',  #62 ) ;
#108 = PERSON_AND_ORGANIZATION_ROLE ( 'creator' ) ;
#109 = PERSON_AND_ORGANIZATION ( #10, #80 ) ;
#110 = COORDINATED_UNIVERSAL_TIME_OFFSET ( 5, 0, .BEHIND. ) ;
#111 = PERSON_AND_ORGANIZATION_ROLE ( 'classification_officer' ) ;
#112 = CLOSED_SHELL ( 'NONE', ( #114, #95, #144, #25 ) ) ;
#113 = PRODUCT_DEFINITION ( 'UNKNOWN', '', #29, #168 ) ;
#114 = ADVANCED_FACE ( 'NONE', ( #85 ), #145, .T. ) ;
#115 = DIRECTION ( 'NONE',  ( 1.000000000000000000, 0.000000000000000000, 0.000000000000000000 ) ) ;
#116 = SECURITY_CLASSIFICATION ( '', '', #165 ) ;
#117 = CARTESIAN_POINT ( 'NONE',  ( 2.499999999999999556, 3.061616997868382648E-16, 1.000000000000000000 ) ) ;
#118 = LOCAL_TIME ( 9, 19, 10.00000000000000000, #97 ) ;
#119 = APPROVAL_DATE_TIME ( #138, #140 ) ;
#120 = CALENDAR_DATE ( 2022, 23, 3 ) ;
#121 = APPROVAL_ROLE ( '' ) ;
#122 = PERSON_AND_ORGANIZATION_ROLE ( 'design_owner' ) ;
#123 = PERSON_AND_ORGANIZATION ( #10, #80 ) ;
#124 = VERTEX_POINT ( 'NONE', #117 ) ;
#125 = AXIS2_PLACEMENT_3D ( 'NONE', #45, #1, #71 ) ;
#126 = ORIENTED_EDGE ( 'NONE', *, *, #41, .F. ) ;
#127 = CIRCLE ( 'NONE', #37, 2.499999999999999556 ) ;
#128 = DIRECTION ( 'NONE',  ( 0.000000000000000000, 0.000000000000000000, 1.000000000000000000 ) ) ;
#129 = CARTESIAN_POINT ( 'NONE',  ( 2.499999999999999556, 3.061616997868382648E-16, 0.000000000000000000 ) ) ;
#130 = LOCAL_TIME ( 9, 19, 10.00000000000000000, #163 ) ;
#131 = PRODUCT_RELATED_PRODUCT_CATEGORY ( 'detail', '', ( #158 ) ) ;
#132 = CARTESIAN_POINT ( 'NONE',  ( 0.000000000000000000, 0.000000000000000000, 1.000000000000000000 ) ) ;
#133 = APPLICATION_CONTEXT ( 'configuration controlled 3d designs of mechanical parts and assemblies' ) ;
#134 = DIRECTION ( 'NONE',  ( -0.000000000000000000, -0.000000000000000000, -1.000000000000000000 ) ) ;
#135 = CC_DESIGN_PERSON_AND_ORGANIZATION_ASSIGNMENT ( #4, #111, ( #116 ) ) ;
#136 = AXIS2_PLACEMENT_3D ( 'NONE', #69, #160, #94 ) ;
#137 = APPLICATION_CONTEXT ( 'configuration controlled 3d designs of mechanical parts and assemblies' ) ;
#138 = DATE_AND_TIME ( #52, #118 ) ;
#139 = ORIENTED_EDGE ( 'NONE', *, *, #81, .F. ) ;
#140 = APPROVAL ( #18, 'UNSPECIFIED' ) ;
#141 = VERTEX_POINT ( 'NONE', #92 ) ;
#142 = ADVANCED_BREP_SHAPE_REPRESENTATION ( 'Web Model 20164_20167', ( #24, #154 ), #23 ) ;
#143 = DIRECTION ( 'NONE',  ( 1.000000000000000000, 0.000000000000000000, 0.000000000000000000 ) ) ;
#144 = ADVANCED_FACE ( 'NONE', ( #175 ), #70, .T. ) ;
#145 = CYLINDRICAL_SURFACE ( 'NONE', #73, 2.499999999999999556 ) ;
#146 = CYLINDRICAL_SURFACE ( 'NONE', #136, 2.499999999999999556 ) ;
#147 = COORDINATED_UNIVERSAL_TIME_OFFSET ( 5, 0, .BEHIND. ) ;
#148 = CC_DESIGN_APPROVAL ( #140, ( #116 ) ) ;
#149 = CC_DESIGN_PERSON_AND_ORGANIZATION_ASSIGNMENT ( #123, #122, ( #158 ) ) ;
#150 = APPROVAL_DATE_TIME ( #36, #22 ) ;
#151 = PERSON_AND_ORGANIZATION ( #10, #80 ) ;
#152 = VECTOR ( 'NONE', #64, 1000.000000000000000 ) ;
#153 = PERSON_AND_ORGANIZATION ( #10, #80 ) ;
#154 = AXIS2_PLACEMENT_3D ( 'NONE', #61, #99, #74 ) ;
#155 = CC_DESIGN_PERSON_AND_ORGANIZATION_ASSIGNMENT ( #65, #108, ( #29 ) ) ;
#156 = EDGE_CURVE ( 'NONE', #57, #67, #50, .T. ) ;
#157 =( NAMED_UNIT ( * ) SI_UNIT ( $, .STERADIAN. ) SOLID_ANGLE_UNIT ( ) );
#158 = PRODUCT ( 'Web Model 20164_20167', 'Web Model 20164_20167', '', ( #169 ) ) ;
#159 = DIRECTION ( 'NONE',  ( 1.000000000000000000, 0.000000000000000000, -0.000000000000000000 ) ) ;
#160 = DIRECTION ( 'NONE',  ( -0.000000000000000000, -0.000000000000000000, -1.000000000000000000 ) ) ;
#161 = LOCAL_TIME ( 9, 19, 10.00000000000000000, #110 ) ;
#162 = DIRECTION ( 'NONE',  ( 1.000000000000000000, 0.000000000000000000, 0.000000000000000000 ) ) ;
#163 = COORDINATED_UNIVERSAL_TIME_OFFSET ( 5, 0, .BEHIND. ) ;
#164 = APPROVAL_PERSON_ORGANIZATION ( #38, #140, #77 ) ;
#165 = SECURITY_CLASSIFICATION_LEVEL ( 'unclassified' ) ;
#166 = DATE_AND_TIME ( #51, #56 ) ;
#167 = CC_DESIGN_PERSON_AND_ORGANIZATION_ASSIGNMENT ( #109, #89, ( #113 ) ) ;
#168 = DESIGN_CONTEXT ( 'detailed design', #137, 'design' ) ;
#169 = MECHANICAL_CONTEXT ( 'NONE', #133, 'mechanical' ) ;
#170 = CC_DESIGN_DATE_AND_TIME_ASSIGNMENT ( #32, #100, ( #113 ) ) ;
#171 = APPROVAL ( #20, 'UNSPECIFIED' ) ;
#172 = CC_DESIGN_APPROVAL ( #171, ( #29 ) ) ;
#173 = ORIENTED_EDGE ( 'NONE', *, *, #60, .T. ) ;
#174 = ORIENTED_EDGE ( 'NONE', *, *, #6, .T. ) ;
#175 = FACE_OUTER_BOUND ( 'NONE', #42, .T. ) ;
ENDSEC;
END-ISO-10303-21;
