ISO-10303-21;
HEADER;
FILE_DESCRIPTION (( 'STEP AP203' ),
    '1' );
FILE_NAME ('step_49869.step',
    '2014-06-05T18:40:14',
    ( '' ),
    ( '' ),
    'SwSTEP 2.0',
    'SolidWorks 2014',
    '' );
FILE_SCHEMA (( 'CONFIG_CONTROL_DESIGN' ));
ENDSEC;

DATA;
#1 = CC_DESIGN_APPROVAL ( #5, ( #22 ) ) ;
#2 = VERTEX_POINT ( 'NONE', #290 ) ;
#3 = DIRECTION ( 'NONE',  ( -0.0000000000000000000, -0.0000000000000000000, -1.000000000000000000 ) ) ;
#4 = FACE_OUTER_BOUND ( 'NONE', #200, .T. ) ;
#5 = APPROVAL ( #277, 'UNSPECIFIED' ) ;
#6 = LINE ( 'NONE', #89, #44 ) ;
#7 = EDGE_LOOP ( 'NONE', ( #227, #110, #185 ) ) ;
#8 = CC_DESIGN_DATE_AND_TIME_ASSIGNMENT ( #146, #274, ( #22 ) ) ;
#9 = ADVANCED_FACE ( 'NONE', ( #123 ), #232, .F. ) ;
#10 = DIRECTION ( 'NONE',  ( -0.0000000000000000000, 1.000000000000000000, -0.0000000000000000000 ) ) ;
#11 = ORIENTED_EDGE ( 'NONE', *, *, #293, .T. ) ;
#12 = VERTEX_POINT ( 'NONE', #209 ) ;
#13 = ORIENTED_EDGE ( 'NONE', *, *, #108, .T. ) ;
#14 = ADVANCED_BREP_SHAPE_REPRESENTATION ( 'step_49869', ( #151, #213, #78 ), #120 ) ;
#15 = CC_DESIGN_PERSON_AND_ORGANIZATION_ASSIGNMENT ( #59, #288, ( #22 ) ) ;
#16 = ORIENTED_EDGE ( 'NONE', *, *, #194, .T. ) ;
#17 = VECTOR ( 'NONE', #70, 1000.000000000000100 ) ;
#18 = CARTESIAN_POINT ( 'NONE',  ( 4.999999999999997300, 4.999999999999997300, 0.0000000000000000000 ) ) ;
#19 = PERSON_AND_ORGANIZATION_ROLE ( 'design_supplier' ) ;
#20 = CALENDAR_DATE ( 2014, 5, 6 ) ;
#21 = ORIENTED_EDGE ( 'NONE', *, *, #245, .F. ) ;
#22 = SECURITY_CLASSIFICATION ( '', '', #285 ) ;
#23 = PRODUCT_DEFINITION_SHAPE ( 'NONE', 'NONE',  #68 ) ;
#24 = CC_DESIGN_PERSON_AND_ORGANIZATION_ASSIGNMENT ( #212, #19, ( #42 ) ) ;
#25 = ADVANCED_FACE ( 'NONE', ( #113 ), #250, .F. ) ;
#26 = CARTESIAN_POINT ( 'NONE',  ( 0.0000000000000000000, 0.0000000000000000000, 5.000000000000000000 ) ) ;
#27 = CC_DESIGN_PERSON_AND_ORGANIZATION_ASSIGNMENT ( #162, #47, ( #42 ) ) ;
#28 = CARTESIAN_POINT ( 'NONE',  ( 0.0000000000000000000, 0.0000000000000000000, 0.0000000000000000000 ) ) ;
#29 = VERTEX_POINT ( 'NONE', #116 ) ;
#30 = DATE_AND_TIME ( #58, #145 ) ;
#31 = EDGE_LOOP ( 'NONE', ( #142, #143, #51, #161 ) ) ;
#32 = LOCAL_TIME ( 11, 40, 14.00000000000000000, #159 ) ;
#33 = CC_DESIGN_APPROVAL ( #41, ( #42 ) ) ;
#34 = PERSON_AND_ORGANIZATION ( #84, #252 ) ;
#35 = DIRECTION ( 'NONE',  ( 1.000000000000000000, -1.061207944852635600E-015, -0.0000000000000000000 ) ) ;
#36 = VERTEX_POINT ( 'NONE', #154 ) ;
#37 = VERTEX_POINT ( 'NONE', #136 ) ;
#38 = DIRECTION ( 'NONE',  ( -0.0000000000000000000, -1.000000000000000000, -0.0000000000000000000 ) ) ;
#39 = LINE ( 'NONE', #60, #52 ) ;
#40 = COORDINATED_UNIVERSAL_TIME_OFFSET ( 7, 0, .BEHIND. ) ;
#41 = APPROVAL ( #77, 'UNSPECIFIED' ) ;
#42 = PRODUCT_DEFINITION_FORMATION_WITH_SPECIFIED_SOURCE ( 'ANY', '', #306, .NOT_KNOWN. ) ;
#43 = VECTOR ( 'NONE', #87, 1000.000000000000000 ) ;
#44 = VECTOR ( 'NONE', #86, 1000.000000000000100 ) ;
#45 = DIRECTION ( 'NONE',  ( 0.7071067811865474600, 0.7071067811865474600, 0.0000000000000000000 ) ) ;
#46 = CC_DESIGN_DATE_AND_TIME_ASSIGNMENT ( #127, #79, ( #68 ) ) ;
#47 = PERSON_AND_ORGANIZATION_ROLE ( 'creator' ) ;
#48 = ORIENTED_EDGE ( 'NONE', *, *, #315, .F. ) ;
#49 = APPROVAL_ROLE ( '' ) ;
#50 = APPROVAL_PERSON_ORGANIZATION ( #313, #65, #109 ) ;
#51 = ORIENTED_EDGE ( 'NONE', *, *, #305, .F. ) ;
#52 = VECTOR ( 'NONE', #38, 1000.000000000000000 ) ;
#53 = EDGE_LOOP ( 'NONE', ( #223, #193, #56 ) ) ;
#54 =( LENGTH_UNIT ( ) NAMED_UNIT ( * ) SI_UNIT ( .MILLI., .METRE. ) );
#55 = CC_DESIGN_PERSON_AND_ORGANIZATION_ASSIGNMENT ( #266, #105, ( #68 ) ) ;
#56 = ORIENTED_EDGE ( 'NONE', *, *, #272, .F. ) ;
#57 = CARTESIAN_POINT ( 'NONE',  ( 4.999999999999997300, -5.306039724263175300E-015, 0.0000000000000000000 ) ) ;
#58 = CALENDAR_DATE ( 2014, 5, 6 ) ;
#59 = PERSON_AND_ORGANIZATION ( #84, #252 ) ;
#60 = CARTESIAN_POINT ( 'NONE',  ( 0.0000000000000000000, 0.0000000000000000000, 5.000000000000000000 ) ) ;
#61 = CC_DESIGN_APPROVAL ( #65, ( #68 ) ) ;
#62 = DIRECTION ( 'NONE',  ( 0.7071067811865475700, -0.7071067811865475700, 0.0000000000000000000 ) ) ;
#63 = CARTESIAN_POINT ( 'NONE',  ( 0.0000000000000000000, 0.0000000000000000000, 5.000000000000000000 ) ) ;
#64 = ORIENTED_EDGE ( 'NONE', *, *, #320, .F. ) ;
#65 = APPROVAL ( #316, 'UNSPECIFIED' ) ;
#66 = LOCAL_TIME ( 11, 40, 14.00000000000000000, #174 ) ;
#67 = VERTEX_POINT ( 'NONE', #26 ) ;
#68 = PRODUCT_DEFINITION ( 'UNKNOWN', '', #42, #183 ) ;
#69 = ORIENTED_EDGE ( 'NONE', *, *, #296, .T. ) ;
#70 = DIRECTION ( 'NONE',  ( -0.7071067811865474600, -0.7071067811865474600, -0.0000000000000000000 ) ) ;
#71 = CC_DESIGN_PERSON_AND_ORGANIZATION_ASSIGNMENT ( #34, #282, ( #306 ) ) ;
#72 = CARTESIAN_POINT ( 'NONE',  ( 4.999999999999997300, 4.999999999999997300, 5.000000000000000000 ) ) ;
#73 = ORIENTED_EDGE ( 'NONE', *, *, #82, .F. ) ;
#74 = VERTEX_POINT ( 'NONE', #221 ) ;
#75 = CARTESIAN_POINT ( 'NONE',  ( 0.0000000000000000000, 0.0000000000000000000, 5.000000000000000000 ) ) ;
#76 = DIRECTION ( 'NONE',  ( -0.0000000000000000000, -0.0000000000000000000, -1.000000000000000000 ) ) ;
#77 = APPROVAL_STATUS ( 'not_yet_approved' ) ;
#78 = AXIS2_PLACEMENT_3D ( 'NONE', #28, #190, #241 ) ;
#79 = DATE_TIME_ROLE ( 'creation_date' ) ;
#80 = EDGE_LOOP ( 'NONE', ( #216, #92, #222, #114 ) ) ;
#81 = LINE ( 'NONE', #284, #244 ) ;
#82 = EDGE_CURVE ( 'NONE', #67, #2, #90, .T. ) ;
#83 = UNCERTAINTY_MEASURE_WITH_UNIT (LENGTH_MEASURE( 1.000000000000000100E-005 ), #54, 'distance_accuracy_value', 'NONE');
#84 = PERSON ( 'UNSPECIFIED', 'UNSPECIFIED', 'UNSPECIFIED', ('UNSPECIFIED'), ('UNSPECIFIED'), ('UNSPECIFIED') ) ;
#85 = CARTESIAN_POINT ( 'NONE',  ( 0.0000000000000000000, 0.0000000000000000000, 5.000000000000000000 ) ) ;
#86 = DIRECTION ( 'NONE',  ( 0.7071067811865474600, 0.7071067811865474600, -0.0000000000000000000 ) ) ;
#87 = DIRECTION ( 'NONE',  ( 1.000000000000000000, -1.061207944852635600E-015, -0.0000000000000000000 ) ) ;
#88 = VERTEX_POINT ( 'NONE', #96 ) ;
#89 = CARTESIAN_POINT ( 'NONE',  ( 4.999999999999997300, 4.999999999999997300, 5.000000000000000000 ) ) ;
#90 = LINE ( 'NONE', #97, #43 ) ;
#91 = DIRECTION ( 'NONE',  ( -0.0000000000000000000, 1.000000000000000000, -0.0000000000000000000 ) ) ;
#92 = ORIENTED_EDGE ( 'NONE', *, *, #293, .F. ) ;
#93 = ORIENTED_EDGE ( 'NONE', *, *, #148, .F. ) ;
#94 = EDGE_CURVE ( 'NONE', #36, #197, #39, .T. ) ;
#95 = EDGE_LOOP ( 'NONE', ( #218, #64, #198, #172 ) ) ;
#96 = CARTESIAN_POINT ( 'NONE',  ( 0.0000000000000000000, 0.0000000000000000000, 0.0000000000000000000 ) ) ;
#97 = CARTESIAN_POINT ( 'NONE',  ( 4.999999999999997300, -5.306039724263175300E-015, 5.000000000000000000 ) ) ;
#98 = DATE_AND_TIME ( #20, #165 ) ;
#99 = CARTESIAN_POINT ( 'NONE',  ( 4.999999999999997300, 4.999999999999997300, 5.000000000000000000 ) ) ;
#100 = CC_DESIGN_SECURITY_CLASSIFICATION ( #22, ( #42 ) ) ;
#101 = VECTOR ( 'NONE', #255, 1000.000000000000000 ) ;
#102 = LINE ( 'NONE', #149, #192 ) ;
#103 = DIRECTION ( 'NONE',  ( -0.0000000000000000000, -0.0000000000000000000, -1.000000000000000000 ) ) ;
#104 = CLOSED_SHELL ( 'NONE', ( #141, #25, #310, #261, #270 ) ) ;
#105 = PERSON_AND_ORGANIZATION_ROLE ( 'creator' ) ;
#106 = APPROVAL_PERSON_ORGANIZATION ( #253, #5, #251 ) ;
#107 = DIRECTION ( 'NONE',  ( 0.0000000000000000000, 0.0000000000000000000, 1.000000000000000000 ) ) ;
#108 = EDGE_CURVE ( 'NONE', #88, #12, #238, .T. ) ;
#109 = APPROVAL_ROLE ( '' ) ;
#110 = ORIENTED_EDGE ( 'NONE', *, *, #228, .T. ) ;
#111 = FACE_OUTER_BOUND ( 'NONE', #273, .T. ) ;
#112 = LINE ( 'NONE', #249, #308 ) ;
#113 = FACE_OUTER_BOUND ( 'NONE', #95, .T. ) ;
#114 = ORIENTED_EDGE ( 'NONE', *, *, #294, .T. ) ;
#115 = ORIENTED_EDGE ( 'NONE', *, *, #294, .F. ) ;
#116 = CARTESIAN_POINT ( 'NONE',  ( 4.999999999999997300, 4.999999999999997300, 0.0000000000000000000 ) ) ;
#117 = CALENDAR_DATE ( 2014, 5, 6 ) ;
#118 = AXIS2_PLACEMENT_3D ( 'NONE', #63, #62, #45 ) ;
#119 = DIRECTION ( 'NONE',  ( -0.0000000000000000000, -0.0000000000000000000, -1.000000000000000000 ) ) ;
#120 =( GEOMETRIC_REPRESENTATION_CONTEXT ( 3 ) GLOBAL_UNCERTAINTY_ASSIGNED_CONTEXT ( ( #83 ) ) GLOBAL_UNIT_ASSIGNED_CONTEXT ( ( #54, #133, #139 ) ) REPRESENTATION_CONTEXT ( 'NONE', 'WORKASPACE' ) );
#121 = ORIENTED_EDGE ( 'NONE', *, *, #302, .T. ) ;
#122 = LOCAL_TIME ( 11, 40, 14.00000000000000000, #40 ) ;
#123 = FACE_OUTER_BOUND ( 'NONE', #7, .T. ) ;
#124 = ORIENTED_EDGE ( 'NONE', *, *, #245, .T. ) ;
#125 = AXIS2_PLACEMENT_3D ( 'NONE', #191, #153, #152 ) ;
#126 = ADVANCED_FACE ( 'NONE', ( #236 ), #321, .F. ) ;
#127 = DATE_AND_TIME ( #207, #66 ) ;
#128 = LINE ( 'NONE', #263, #276 ) ;
#129 = PLANE ( 'NONE',  #118 ) ;
#130 = DIRECTION ( 'NONE',  ( -1.000000000000000000, -0.0000000000000000000, -0.0000000000000000000 ) ) ;
#131 = LINE ( 'NONE', #18, #301 ) ;
#132 = CLOSED_SHELL ( 'NONE', ( #126, #233, #157, #9, #246 ) ) ;
#133 =( NAMED_UNIT ( * ) PLANE_ANGLE_UNIT ( ) SI_UNIT ( $, .RADIAN. ) );
#134 = VECTOR ( 'NONE', #76, 1000.000000000000000 ) ;
#135 = LINE ( 'NONE', #137, #219 ) ;
#136 = CARTESIAN_POINT ( 'NONE',  ( 4.999999999999997300, 4.999999999999997300, 0.0000000000000000000 ) ) ;
#137 = CARTESIAN_POINT ( 'NONE',  ( 0.0000000000000000000, 4.999999999999997300, 0.0000000000000000000 ) ) ;
#138 = AXIS2_PLACEMENT_3D ( 'NONE', #196, #164, #160 ) ;
#139 =( NAMED_UNIT ( * ) SI_UNIT ( $, .STERADIAN. ) SOLID_ANGLE_UNIT ( ) );
#140 = LINE ( 'NONE', #72, #182 ) ;
#141 = ADVANCED_FACE ( 'NONE', ( #4 ), #309, .F. ) ;
#142 = ORIENTED_EDGE ( 'NONE', *, *, #148, .T. ) ;
#143 = ORIENTED_EDGE ( 'NONE', *, *, #302, .F. ) ;
#144 = CARTESIAN_POINT ( 'NONE',  ( 4.999999999999997300, 4.999999999999997300, 5.000000000000000000 ) ) ;
#145 = LOCAL_TIME ( 11, 40, 14.00000000000000000, #206 ) ;
#146 = DATE_AND_TIME ( #117, #32 ) ;
#147 = CARTESIAN_POINT ( 'NONE',  ( 0.0000000000000000000, 0.0000000000000000000, 5.000000000000000000 ) ) ;
#148 = EDGE_CURVE ( 'NONE', #37, #88, #307, .T. ) ;
#149 = CARTESIAN_POINT ( 'NONE',  ( 4.999999999999997300, 4.999999999999997300, 5.000000000000000000 ) ) ;
#150 = CALENDAR_DATE ( 2014, 5, 6 ) ;
#151 = MANIFOLD_SOLID_BREP ( 'Boss-Extrude1', #132 ) ;
#152 = DIRECTION ( 'NONE',  ( 1.000000000000000000, 0.0000000000000000000, -0.0000000000000000000 ) ) ;
#153 = DIRECTION ( 'NONE',  ( 0.0000000000000000000, 0.0000000000000000000, 1.000000000000000000 ) ) ;
#154 = CARTESIAN_POINT ( 'NONE',  ( 0.0000000000000000000, 4.999999999999997300, 5.000000000000000000 ) ) ;
#155 = AXIS2_PLACEMENT_3D ( 'NONE', #184, #180, #179 ) ;
#156 = ORIENTED_EDGE ( 'NONE', *, *, #82, .T. ) ;
#157 = ADVANCED_FACE ( 'NONE', ( #111 ), #281, .F. ) ;
#158 = PLANE ( 'NONE',  #125 ) ;
#159 = COORDINATED_UNIVERSAL_TIME_OFFSET ( 7, 0, .BEHIND. ) ;
#160 = DIRECTION ( 'NONE',  ( 1.000000000000000000, 0.0000000000000000000, -0.0000000000000000000 ) ) ;
#161 = ORIENTED_EDGE ( 'NONE', *, *, #320, .T. ) ;
#162 = PERSON_AND_ORGANIZATION ( #84, #252 ) ;
#163 = APPLICATION_PROTOCOL_DEFINITION ( 'international standard', 'config_control_design', 1994, #189 ) ;
#164 = DIRECTION ( 'NONE',  ( 0.0000000000000000000, 0.0000000000000000000, 1.000000000000000000 ) ) ;
#165 = LOCAL_TIME ( 11, 40, 14.00000000000000000, #248 ) ;
#166 = ORIENTED_EDGE ( 'NONE', *, *, #272, .T. ) ;
#167 = FACE_OUTER_BOUND ( 'NONE', #214, .T. ) ;
#168 = APPROVAL_PERSON_ORGANIZATION ( #225, #41, #49 ) ;
#169 = VERTEX_POINT ( 'NONE', #260 ) ;
#170 = APPROVAL_DATE_TIME ( #98, #5 ) ;
#171 = DIRECTION ( 'NONE',  ( -1.000000000000000000, 0.0000000000000000000, 0.0000000000000000000 ) ) ;
#172 = ORIENTED_EDGE ( 'NONE', *, *, #176, .T. ) ;
#173 = PLANE ( 'NONE',  #138 ) ;
#174 = COORDINATED_UNIVERSAL_TIME_OFFSET ( 7, 0, .BEHIND. ) ;
#175 = VECTOR ( 'NONE', #292, 1000.000000000000100 ) ;
#176 = EDGE_CURVE ( 'NONE', #2, #12, #81, .T. ) ;
#177 = CARTESIAN_POINT ( 'NONE',  ( 4.999999999999997300, 4.999999999999997300, 5.000000000000000000 ) ) ;
#178 = ORIENTED_EDGE ( 'NONE', *, *, #94, .F. ) ;
#179 = DIRECTION ( 'NONE',  ( -1.000000000000000000, 0.0000000000000000000, 0.0000000000000000000 ) ) ;
#180 = DIRECTION ( 'NONE',  ( 0.0000000000000000000, 0.0000000000000000000, -1.000000000000000000 ) ) ;
#181 = ORIENTED_EDGE ( 'NONE', *, *, #305, .T. ) ;
#182 = VECTOR ( 'NONE', #3, 1000.000000000000000 ) ;
#183 = DESIGN_CONTEXT ( 'detailed design', #283, 'design' ) ;
#184 = CARTESIAN_POINT ( 'NONE',  ( 0.0000000000000000000, 0.0000000000000000000, 0.0000000000000000000 ) ) ;
#185 = ORIENTED_EDGE ( 'NONE', *, *, #94, .T. ) ;
#186 = CARTESIAN_POINT ( 'NONE',  ( 0.0000000000000000000, 0.0000000000000000000, 5.000000000000000000 ) ) ;
#187 = ORIENTED_EDGE ( 'NONE', *, *, #108, .F. ) ;
#188 = AXIS2_PLACEMENT_3D ( 'NONE', #211, #205, #204 ) ;
#189 = APPLICATION_CONTEXT ( 'configuration controlled 3d designs of mechanical parts and assemblies' ) ;
#190 = DIRECTION ( 'NONE',  ( 0.0000000000000000000, 0.0000000000000000000, 1.000000000000000000 ) ) ;
#191 = CARTESIAN_POINT ( 'NONE',  ( 0.0000000000000000000, 0.0000000000000000000, 0.0000000000000000000 ) ) ;
#192 = VECTOR ( 'NONE', #119, 1000.000000000000000 ) ;
#193 = ORIENTED_EDGE ( 'NONE', *, *, #194, .F. ) ;
#194 = EDGE_CURVE ( 'NONE', #169, #74, #231, .T. ) ;
#195 = LINE ( 'NONE', #99, #291 ) ;
#196 = CARTESIAN_POINT ( 'NONE',  ( 0.0000000000000000000, 0.0000000000000000000, 5.000000000000000000 ) ) ;
#197 = VERTEX_POINT ( 'NONE', #254 ) ;
#198 = ORIENTED_EDGE ( 'NONE', *, *, #296, .F. ) ;
#199 = FACE_OUTER_BOUND ( 'NONE', #319, .T. ) ;
#200 = EDGE_LOOP ( 'NONE', ( #13, #242, #73, #121 ) ) ;
#201 = PLANE ( 'NONE',  #155 ) ;
#202 = VECTOR ( 'NONE', #224, 1000.000000000000000 ) ;
#203 = CARTESIAN_POINT ( 'NONE',  ( 0.0000000000000000000, 4.999999999999997300, 5.000000000000000000 ) ) ;
#204 = DIRECTION ( 'NONE',  ( 0.0000000000000000000, -0.0000000000000000000, -1.000000000000000000 ) ) ;
#205 = DIRECTION ( 'NONE',  ( 0.0000000000000000000, -1.000000000000000000, 0.0000000000000000000 ) ) ;
#206 = COORDINATED_UNIVERSAL_TIME_OFFSET ( 7, 0, .BEHIND. ) ;
#207 = CALENDAR_DATE ( 2014, 5, 6 ) ;
#208 = DIRECTION ( 'NONE',  ( -1.000000000000000000, 0.0000000000000000000, 0.0000000000000000000 ) ) ;
#209 = CARTESIAN_POINT ( 'NONE',  ( 4.999999999999997300, -5.306039724263175300E-015, 0.0000000000000000000 ) ) ;
#210 = EDGE_CURVE ( 'NONE', #74, #29, #128, .T. ) ;
#211 = CARTESIAN_POINT ( 'NONE',  ( 0.0000000000000000000, 4.999999999999997300, 5.000000000000000000 ) ) ;
#212 = PERSON_AND_ORGANIZATION ( #84, #252 ) ;
#213 = MANIFOLD_SOLID_BREP ( 'Boss-Extrude2', #104 ) ;
#214 = EDGE_LOOP ( 'NONE', ( #187, #93, #48 ) ) ;
#215 = CARTESIAN_POINT ( 'NONE',  ( 4.999999999999997300, 4.999999999999997300, 5.000000000000000000 ) ) ;
#216 = ORIENTED_EDGE ( 'NONE', *, *, #210, .T. ) ;
#217 = FACE_OUTER_BOUND ( 'NONE', #53, .T. ) ;
#218 = ORIENTED_EDGE ( 'NONE', *, *, #315, .T. ) ;
#219 = VECTOR ( 'NONE', #130, 1000.000000000000000 ) ;
#220 = ORIENTED_EDGE ( 'NONE', *, *, #228, .F. ) ;
#221 = CARTESIAN_POINT ( 'NONE',  ( 0.0000000000000000000, 0.0000000000000000000, 0.0000000000000000000 ) ) ;
#222 = ORIENTED_EDGE ( 'NONE', *, *, #299, .F. ) ;
#223 = ORIENTED_EDGE ( 'NONE', *, *, #210, .F. ) ;
#224 = DIRECTION ( 'NONE',  ( -0.0000000000000000000, -0.0000000000000000000, -1.000000000000000000 ) ) ;
#225 = PERSON_AND_ORGANIZATION ( #84, #252 ) ;
#226 = PLANE ( 'NONE',  #188 ) ;
#227 = ORIENTED_EDGE ( 'NONE', *, *, #299, .T. ) ;
#228 = EDGE_CURVE ( 'NONE', #280, #36, #112, .T. ) ;
#229 = FACE_OUTER_BOUND ( 'NONE', #240, .T. ) ;
#230 = DIRECTION ( 'NONE',  ( 0.7071067811865474600, 0.7071067811865474600, -0.0000000000000000000 ) ) ;
#231 = LINE ( 'NONE', #259, #101 ) ;
#232 = PLANE ( 'NONE',  #286 ) ;
#233 = ADVANCED_FACE ( 'NONE', ( #199 ), #226, .F. ) ;
#234 = DIRECTION ( 'NONE',  ( -1.000000000000000000, -0.0000000000000000000, -0.0000000000000000000 ) ) ;
#235 = VERTEX_POINT ( 'NONE', #215 ) ;
#236 = FACE_OUTER_BOUND ( 'NONE', #80, .T. ) ;
#237 = AXIS2_PLACEMENT_3D ( 'NONE', #287, #271, #267 ) ;
#238 = LINE ( 'NONE', #57, #275 ) ;
#239 = DIRECTION ( 'NONE',  ( 0.0000000000000000000, 0.0000000000000000000, -1.000000000000000000 ) ) ;
#240 = EDGE_LOOP ( 'NONE', ( #156, #69, #181 ) ) ;
#241 = DIRECTION ( 'NONE',  ( 1.000000000000000000, 0.0000000000000000000, 0.0000000000000000000 ) ) ;
#242 = ORIENTED_EDGE ( 'NONE', *, *, #176, .F. ) ;
#243 = SHAPE_DEFINITION_REPRESENTATION ( #23, #14 ) ;
#244 = VECTOR ( 'NONE', #258, 1000.000000000000000 ) ;
#245 = EDGE_CURVE ( 'NONE', #36, #169, #279, .T. ) ;
#246 = ADVANCED_FACE ( 'NONE', ( #217 ), #201, .T. ) ;
#247 = APPROVAL_DATE_TIME ( #30, #65 ) ;
#248 = COORDINATED_UNIVERSAL_TIME_OFFSET ( 7, 0, .BEHIND. ) ;
#249 = CARTESIAN_POINT ( 'NONE',  ( 0.0000000000000000000, 4.999999999999997300, 5.000000000000000000 ) ) ;
#250 = PLANE ( 'NONE',  #278 ) ;
#251 = APPROVAL_ROLE ( '' ) ;
#252 = ORGANIZATION ( 'UNSPECIFIED', 'UNSPECIFIED', '' ) ;
#253 = PERSON_AND_ORGANIZATION ( #84, #252 ) ;
#254 = CARTESIAN_POINT ( 'NONE',  ( 0.0000000000000000000, 0.0000000000000000000, 5.000000000000000000 ) ) ;
#255 = DIRECTION ( 'NONE',  ( -0.0000000000000000000, -1.000000000000000000, -0.0000000000000000000 ) ) ;
#256 = APPROVAL_DATE_TIME ( #262, #41 ) ;
#257 = AXIS2_PLACEMENT_3D ( 'NONE', #314, #298, #295 ) ;
#258 = DIRECTION ( 'NONE',  ( -0.0000000000000000000, -0.0000000000000000000, -1.000000000000000000 ) ) ;
#259 = CARTESIAN_POINT ( 'NONE',  ( 0.0000000000000000000, 0.0000000000000000000, 0.0000000000000000000 ) ) ;
#260 = CARTESIAN_POINT ( 'NONE',  ( 0.0000000000000000000, 4.999999999999997300, 0.0000000000000000000 ) ) ;
#261 = ADVANCED_FACE ( 'NONE', ( #229 ), #173, .T. ) ;
#262 = DATE_AND_TIME ( #150, #122 ) ;
#263 = CARTESIAN_POINT ( 'NONE',  ( 4.999999999999997300, 4.999999999999997300, 0.0000000000000000000 ) ) ;
#264 = FACE_OUTER_BOUND ( 'NONE', #31, .T. ) ;
#265 = MECHANICAL_CONTEXT ( 'NONE', #189, 'mechanical' ) ;
#266 = PERSON_AND_ORGANIZATION ( #84, #252 ) ;
#267 = DIRECTION ( 'NONE',  ( 0.0000000000000000000, 0.0000000000000000000, -1.000000000000000000 ) ) ;
#268 = AXIS2_PLACEMENT_3D ( 'NONE', #317, #312, #311 ) ;
#269 = LINE ( 'NONE', #75, #17 ) ;
#270 = ADVANCED_FACE ( 'NONE', ( #167 ), #158, .F. ) ;
#271 = DIRECTION ( 'NONE',  ( 1.000000000000000000, 0.0000000000000000000, 0.0000000000000000000 ) ) ;
#272 = EDGE_CURVE ( 'NONE', #29, #169, #135, .T. ) ;
#273 = EDGE_LOOP ( 'NONE', ( #16, #115, #178, #124 ) ) ;
#274 = DATE_TIME_ROLE ( 'classification_date' ) ;
#275 = VECTOR ( 'NONE', #35, 1000.000000000000000 ) ;
#276 = VECTOR ( 'NONE', #230, 1000.000000000000100 ) ;
#277 = APPROVAL_STATUS ( 'not_yet_approved' ) ;
#278 = AXIS2_PLACEMENT_3D ( 'NONE', #177, #171, #107 ) ;
#279 = LINE ( 'NONE', #203, #202 ) ;
#280 = VERTEX_POINT ( 'NONE', #144 ) ;
#281 = PLANE ( 'NONE',  #237 ) ;
#282 = PERSON_AND_ORGANIZATION_ROLE ( 'design_owner' ) ;
#283 = APPLICATION_CONTEXT ( 'configuration controlled 3d designs of mechanical parts and assemblies' ) ;
#284 = CARTESIAN_POINT ( 'NONE',  ( 4.999999999999997300, -5.306039724263175300E-015, 5.000000000000000000 ) ) ;
#285 = SECURITY_CLASSIFICATION_LEVEL ( 'unclassified' ) ;
#286 = AXIS2_PLACEMENT_3D ( 'NONE', #186, #239, #208 ) ;
#287 = CARTESIAN_POINT ( 'NONE',  ( 0.0000000000000000000, 0.0000000000000000000, 5.000000000000000000 ) ) ;
#288 = PERSON_AND_ORGANIZATION_ROLE ( 'classification_officer' ) ;
#289 = CARTESIAN_POINT ( 'NONE',  ( 0.0000000000000000000, 0.0000000000000000000, 0.0000000000000000000 ) ) ;
#290 = CARTESIAN_POINT ( 'NONE',  ( 4.999999999999997300, -5.306039724263175300E-015, 5.000000000000000000 ) ) ;
#291 = VECTOR ( 'NONE', #91, 1000.000000000000000 ) ;
#292 = DIRECTION ( 'NONE',  ( -0.7071067811865474600, -0.7071067811865474600, -0.0000000000000000000 ) ) ;
#293 = EDGE_CURVE ( 'NONE', #280, #29, #102, .T. ) ;
#294 = EDGE_CURVE ( 'NONE', #197, #74, #303, .T. ) ;
#295 = DIRECTION ( 'NONE',  ( -1.000000000000000000, 1.061207944852635800E-015, 0.0000000000000000000 ) ) ;
#296 = EDGE_CURVE ( 'NONE', #2, #235, #195, .T. ) ;
#297 = LINE ( 'NONE', #85, #134 ) ;
#298 = DIRECTION ( 'NONE',  ( 1.061207944852635800E-015, 1.000000000000000000, -0.0000000000000000000 ) ) ;
#299 = EDGE_CURVE ( 'NONE', #197, #280, #6, .T. ) ;
#300 = APPLICATION_PROTOCOL_DEFINITION ( 'international standard', 'config_control_design', 1994, #283 ) ;
#301 = VECTOR ( 'NONE', #10, 1000.000000000000000 ) ;
#302 = EDGE_CURVE ( 'NONE', #67, #88, #297, .T. ) ;
#303 = LINE ( 'NONE', #147, #304 ) ;
#304 = VECTOR ( 'NONE', #103, 1000.000000000000000 ) ;
#305 = EDGE_CURVE ( 'NONE', #235, #67, #269, .T. ) ;
#306 = PRODUCT ( 'step_49869', 'step_49869', '', ( #265 ) ) ;
#307 = LINE ( 'NONE', #289, #175 ) ;
#308 = VECTOR ( 'NONE', #234, 1000.000000000000000 ) ;
#309 = PLANE ( 'NONE',  #257 ) ;
#310 = ADVANCED_FACE ( 'NONE', ( #264 ), #129, .F. ) ;
#311 = DIRECTION ( 'NONE',  ( -0.7071067811865474600, -0.7071067811865474600, 0.0000000000000000000 ) ) ;
#312 = DIRECTION ( 'NONE',  ( -0.7071067811865475700, 0.7071067811865475700, 0.0000000000000000000 ) ) ;
#313 = PERSON_AND_ORGANIZATION ( #84, #252 ) ;
#314 = CARTESIAN_POINT ( 'NONE',  ( 4.999999999999997300, -5.306039724263175300E-015, 5.000000000000000000 ) ) ;
#315 = EDGE_CURVE ( 'NONE', #12, #37, #131, .T. ) ;
#316 = APPROVAL_STATUS ( 'not_yet_approved' ) ;
#317 = CARTESIAN_POINT ( 'NONE',  ( 4.999999999999997300, 4.999999999999997300, 5.000000000000000000 ) ) ;
#318 = PRODUCT_RELATED_PRODUCT_CATEGORY ( 'detail', '', ( #306 ) ) ;
#319 = EDGE_LOOP ( 'NONE', ( #166, #21, #220, #11 ) ) ;
#320 = EDGE_CURVE ( 'NONE', #235, #37, #140, .T. ) ;
#321 = PLANE ( 'NONE',  #268 ) ;
ENDSEC;
END-ISO-10303-21;
