ISO-10303-21;
HEADER;
FILE_DESCRIPTION (( 'STEP AP203' ),
    '1' );
FILE_NAME ('Web Model 66764.STEP',
    '2017-01-31T19:41:03',
    ( '' ),
    ( '' ),
    'SwSTEP 2.0',
    'SolidWorks 2016',
    '' );
FILE_SCHEMA (( 'CONFIG_CONTROL_DESIGN' ));
ENDSEC;

DATA;
#1 = EDGE_CURVE ( 'NONE', #164, #260, #127, .T. ) ;
#2 = DATE_AND_TIME ( #264, #20 ) ;
#3 = CARTESIAN_POINT ( 'NONE',  ( 0.0000000000000000000, 25.00000000000000000, 0.0008664250225351560200 ) ) ;
#4 = CARTESIAN_POINT ( 'NONE',  ( 0.0000000000000000000, 16.66666673548740000, -0.0002888083314816860000 ) ) ;
#5 = DATE_AND_TIME ( #169, #67 ) ;
#6 = EDGE_LOOP ( 'NONE', ( #238, #46, #40, #202 ) ) ;
#7 = CARTESIAN_POINT ( 'NONE',  ( -8.333333344586412400, 8.333333344586412400, 0.0000000000000000000 ) ) ;
#8 = CARTESIAN_POINT ( 'NONE',  ( 0.0000000000000000000, 8.333333344586412400, 0.0000000000000000000 ) ) ;
#9 = CARTESIAN_POINT ( 'NONE',  ( 0.0000000000000000000, 0.0000000000000000000, 0.0000000000000000000 ) ) ;
#10 = VERTEX_POINT ( 'NONE', #54 ) ;
#11 = CARTESIAN_POINT ( 'NONE',  ( -3.061616997868379500E-015, -24.99999999999999600, 0.0008664250225351560200 ) ) ;
#12 = SECURITY_CLASSIFICATION_LEVEL ( 'unclassified' ) ;
#13 = LINE ( 'NONE', #64, #55 ) ;
#14 = EDGE_CURVE ( 'NONE', #33, #10, #21, .T. ) ;
#15 = PRODUCT_DEFINITION ( 'UNKNOWN', '', #157, #62 ) ;
#16 = CARTESIAN_POINT ( 'NONE',  ( 0.0000000000000000000, 8.333333344586412400, 0.0000000000000000000 ) ) ;
#17 = CARTESIAN_POINT ( 'NONE',  ( 25.00000000000000000, -25.00000000000000000, 0.0008664250225351560200 ) ) ;
#18 = CALENDAR_DATE ( 2017, 31, 1 ) ;
#19 = CARTESIAN_POINT ( 'NONE',  ( 0.0000000000000000000, 0.0000000000000000000, 0.0000000000000000000 ) ) ;
#20 = LOCAL_TIME ( 14, 41, 3.000000000000000000, #141 ) ;
#21 = CIRCLE ( 'NONE', #154, 25.00000000000000000 ) ;
#22 = CC_DESIGN_SECURITY_CLASSIFICATION ( #206, ( #157 ) ) ;
#23 = ORIENTED_EDGE ( 'NONE', *, *, #14, .F. ) ;
#24 = EDGE_CURVE ( 'NONE', #28, #10, #252, .T. ) ;
#25 = PERSON_AND_ORGANIZATION_ROLE ( 'design_owner' ) ;
#26 = DATE_AND_TIME ( #115, #66 ) ;
#27 = APPROVAL_PERSON_ORGANIZATION ( #87, #107, #226 ) ;
#28 = VERTEX_POINT ( 'NONE', #190 ) ;
#29 = CARTESIAN_POINT ( 'NONE',  ( -1.020539000667570000E-015, -8.333333344586412400, 0.0000000000000000000 ) ) ;
#30 = CARTESIAN_POINT ( 'NONE',  ( -25.00000000000000700, 6.614330676668884400E-015, -4.000000000000000000 ) ) ;
#31 = CARTESIAN_POINT ( 'NONE',  ( -25.00000000000000000, 25.00000000000000000, 0.0008664250225351560200 ) ) ;
#32 = CYLINDRICAL_SURFACE ( 'NONE', #199, 25.00000000000000000 ) ;
#33 = VERTEX_POINT ( 'NONE', #34 ) ;
#34 = CARTESIAN_POINT ( 'NONE',  ( -25.00000000000000000, 6.614330676668883600E-015, 0.0008664250225351560200 ) ) ;
#35 = CARTESIAN_POINT ( 'NONE',  ( -2.041078007007030200E-015, -16.66666673548740000, -0.0002888083314816860000 ) ) ;
#36 = CC_DESIGN_PERSON_AND_ORGANIZATION_ASSIGNMENT ( #183, #69, ( #15 ) ) ;
#37 = CARTESIAN_POINT ( 'NONE',  ( 7.654042494670950700E-016, 3.265531974910997200E-015, 0.0008664250225351560200 ) ) ;
#38 = DIRECTION ( 'NONE',  ( 1.000000000000000000, 0.0000000000000000000, 0.0000000000000000000 ) ) ;
#39 = COORDINATED_UNIVERSAL_TIME_OFFSET ( 5, 0, .BEHIND. ) ;
#40 = ORIENTED_EDGE ( 'NONE', *, *, #110, .T. ) ;
#41 = CARTESIAN_POINT ( 'NONE',  ( -8.333333344586412400, -8.333333344586412400, 0.0000000000000000000 ) ) ;
#42 = CARTESIAN_POINT ( 'NONE',  ( 0.0000000000000000000, 3.552713678800500100E-015, -4.000000000000000000 ) ) ;
#43 = DIRECTION ( 'NONE',  ( -4.336808689942020100E-021, -8.519169413872370100E-038, 1.000000000000000000 ) ) ;
#44 = CARTESIAN_POINT ( 'NONE',  ( -25.00000000000000000, -25.00000000000000000, 0.0008664250225351560200 ) ) ;
#45 = FACE_OUTER_BOUND ( 'NONE', #184, .T. ) ;
#46 = ORIENTED_EDGE ( 'NONE', *, *, #186, .T. ) ;
#47 = APPLICATION_PROTOCOL_DEFINITION ( 'international standard', 'config_control_design', 1994, #187 ) ;
#48 = APPROVAL_ROLE ( '' ) ;
#49 = CARTESIAN_POINT ( 'NONE',  ( 0.0000000000000000000, 0.0000000000000000000, 0.0000000000000000000 ) ) ;
#50 = DATE_AND_TIME ( #163, #126 ) ;
#51 = CLOSED_SHELL ( 'NONE', ( #243, #240, #135, #180, #165 ) ) ;
#52 = CARTESIAN_POINT ( 'NONE',  ( 0.0000000000000000000, 16.66666673548740000, -0.0002888083314816860000 ) ) ;
#53 = CARTESIAN_POINT ( 'NONE',  ( 0.0000000000000000000, 0.0000000000000000000, 0.0000000000000000000 ) ) ;
#54 = CARTESIAN_POINT ( 'NONE',  ( -3.061616997868379500E-015, -24.99999999999999600, 0.0008664250225351560200 ) ) ;
#55 = VECTOR ( 'NONE', #43, 1000.000000000000000 ) ;
#56 = CC_DESIGN_DATE_AND_TIME_ASSIGNMENT ( #5, #168, ( #15 ) ) ;
#57 = CARTESIAN_POINT ( 'NONE',  ( 0.0000000000000000000, 16.66666673548740000, -0.0002888083314816860000 ) ) ;
#58 = LOCAL_TIME ( 14, 41, 3.000000000000000000, #125 ) ;
#59 = ORIENTED_EDGE ( 'NONE', *, *, #1, .F. ) ;
#60 = CARTESIAN_POINT ( 'NONE',  ( -2.041078007007030200E-015, -16.66666673548740000, -0.0002888083314816860000 ) ) ;
#61 = CARTESIAN_POINT ( 'NONE',  ( -51.20400000000000100, 0.0000000000000000000, -4.000000000000000000 ) ) ;
#62 = DESIGN_CONTEXT ( 'detailed design', #187, 'design' ) ;
#63 = PERSON ( 'UNSPECIFIED', 'UNSPECIFIED', 'UNSPECIFIED', ('UNSPECIFIED'), ('UNSPECIFIED'), ('UNSPECIFIED') ) ;
#64 = CARTESIAN_POINT ( 'NONE',  ( -25.00000000000000000, 6.614330676668883600E-015, -4.000000000000000000 ) ) ;
#65 = DIRECTION ( 'NONE',  ( -4.336808689942020100E-021, -8.519169413872370100E-038, 1.000000000000000000 ) ) ;
#66 = LOCAL_TIME ( 14, 41, 3.000000000000000000, #86 ) ;
#67 = LOCAL_TIME ( 14, 41, 3.000000000000000000, #39 ) ;
#68 = ORIENTED_EDGE ( 'NONE', *, *, #220, .T. ) ;
#69 = PERSON_AND_ORGANIZATION_ROLE ( 'creator' ) ;
#70 = CC_DESIGN_APPROVAL ( #107, ( #157 ) ) ;
#71 = ORIENTED_EDGE ( 'NONE', *, *, #72, .F. ) ;
#72 = EDGE_CURVE ( 'NONE', #260, #164, #221, .T. ) ;
#73 = APPROVAL_STATUS ( 'not_yet_approved' ) ;
#74 = CARTESIAN_POINT ( 'NONE',  ( -1.020539000667570000E-015, -8.333333344586412400, 0.0000000000000000000 ) ) ;
#75 = DATE_TIME_ROLE ( 'classification_date' ) ;
#76 = DIRECTION ( 'NONE',  ( 1.000000000000000000, 0.0000000000000000000, 0.0000000000000000000 ) ) ;
#77 = CARTESIAN_POINT ( 'NONE',  ( 24.99999999999999600, 3.265531974910997200E-015, -4.000000000000000000 ) ) ;
#78 = ORIENTED_EDGE ( 'NONE', *, *, #196, .T. ) ;
#79 = UNCERTAINTY_MEASURE_WITH_UNIT (LENGTH_MEASURE( 1.000000000000000100E-005 ), #217, 'distance_accuracy_value', 'NONE');
#80 = CARTESIAN_POINT ( 'NONE',  ( -1.925929944387235900E-031, 25.00000000000000700, 0.0008664250225351560200 ) ) ;
#81 = DIRECTION ( 'NONE',  ( -1.000000000000000000, 0.0000000000000000000, -0.0000000000000000000 ) ) ;
#82 = VERTEX_POINT ( 'NONE', #147 ) ;
#83 = APPROVAL ( #231, 'UNSPECIFIED' ) ;
#84 = CARTESIAN_POINT ( 'NONE',  ( 0.0000000000000000000, 0.0000000000000000000, 0.0000000000000000000 ) ) ;
#85 = CARTESIAN_POINT ( 'NONE',  ( 0.0000000000000000000, 0.0000000000000000000, 0.0000000000000000000 ) ) ;
#86 = COORDINATED_UNIVERSAL_TIME_OFFSET ( 5, 0, .BEHIND. ) ;
#87 = PERSON_AND_ORGANIZATION ( #63, #166 ) ;
#88 = CARTESIAN_POINT ( 'NONE',  ( 25.00000000000000000, -25.00000000000000000, 0.0008664250225351560200 ) ) ;
#89 = APPROVAL_PERSON_ORGANIZATION ( #270, #285, #48 ) ;
#90 = CARTESIAN_POINT ( 'NONE',  ( 8.333333344586412400, -1.530808501001350200E-015, 0.0000000000000000000 ) ) ;
#91 =( NAMED_UNIT ( * ) SI_UNIT ( $, .STERADIAN. ) SOLID_ANGLE_UNIT ( ) );
#92 = CARTESIAN_POINT ( 'NONE',  ( 0.0000000000000000000, 25.00000000000000000, 0.0008664250225351560200 ) ) ;
#93 = AXIS2_PLACEMENT_3D ( 'NONE', #276, #124, #38 ) ;
#94 = CARTESIAN_POINT ( 'NONE',  ( 25.00000000000000000, -4.592425496802569600E-015, 0.0008664250225351560200 ) ) ;
#95 = CARTESIAN_POINT ( 'NONE',  ( 8.333333344586412400, -8.333333344586412400, 0.0000000000000000000 ) ) ;
#96 = CARTESIAN_POINT ( 'NONE',  ( 0.0000000000000000000, 0.0000000000000000000, 0.0000000000000000000 ) ) ;
#97 = CARTESIAN_POINT ( 'NONE',  ( 0.0000000000000000000, 0.0000000000000000000, 0.0000000000000000000 ) ) ;
#98 = APPROVAL_ROLE ( '' ) ;
#99 = CC_DESIGN_PERSON_AND_ORGANIZATION_ASSIGNMENT ( #268, #246, ( #157 ) ) ;
#100 = CARTESIAN_POINT ( 'NONE',  ( -16.66666673548740000, 1.020539003503520200E-015, -0.0002888083314816860000 ) ) ;
#101 = CARTESIAN_POINT ( 'NONE',  ( 16.66666673548740000, 16.66666673548740000, -0.0002888083314816860000 ) ) ;
#102 = VECTOR ( 'NONE', #251, 1000.000000000000000 ) ;
#103 = CARTESIAN_POINT ( 'NONE',  ( 0.0000000000000000000, 25.00000000000000000, 0.0008664250225351560200 ) ) ;
#104 = DIRECTION ( 'NONE',  ( 1.000000000000000000, 0.0000000000000000000, 0.0000000000000000000 ) ) ;
#105 = PRODUCT_DEFINITION_SHAPE ( 'NONE', 'NONE',  #15 ) ;
#106 = CYLINDRICAL_SURFACE ( 'NONE', #272, 25.00000000000000000 ) ;
#107 = APPROVAL ( #73, 'UNSPECIFIED' ) ;
#108 = DIRECTION ( 'NONE',  ( 0.0000000000000000000, 0.0000000000000000000, 1.000000000000000000 ) ) ;
#109 = ORIENTED_EDGE ( 'NONE', *, *, #225, .F. ) ;
#110 = EDGE_CURVE ( 'NONE', #274, #33, #170, .T. ) ;
#111 = FACE_OUTER_BOUND ( 'NONE', #6, .T. ) ;
#112 = CARTESIAN_POINT ( 'NONE',  ( 8.333333344586412400, -8.333333344586412400, 0.0000000000000000000 ) ) ;
#113 = CARTESIAN_POINT ( 'NONE',  ( -8.333333344586412400, -8.333333344586412400, 0.0000000000000000000 ) ) ;
#114 = MECHANICAL_CONTEXT ( 'NONE', #245, 'mechanical' ) ;
#115 = CALENDAR_DATE ( 2017, 31, 1 ) ;
#116 = CARTESIAN_POINT ( 'NONE',  ( -8.333333344586412400, 5.102695003337830200E-016, 0.0000000000000000000 ) ) ;
#117 = AXIS2_PLACEMENT_3D ( 'NONE', #61, #216, #81 ) ;
#118 = CARTESIAN_POINT ( 'NONE',  ( 16.66666673548740000, -16.66666673548740000, -0.0002888083314816860000 ) ) ;
#119 = DIRECTION ( 'NONE',  ( -0.0000000000000000000, 0.0000000000000000000, 1.000000000000000000 ) ) ;
#120 = APPROVAL_DATE_TIME ( #2, #107 ) ;
#121 = ORIENTED_EDGE ( 'NONE', *, *, #132, .F. ) ;
#122 = CARTESIAN_POINT ( 'NONE',  ( 0.0000000000000000000, 0.0000000000000000000, 0.0000000000000000000 ) ) ;
#123 = CARTESIAN_POINT ( 'NONE',  ( 0.0000000000000000000, 8.333333344586412400, 0.0000000000000000000 ) ) ;
#124 = DIRECTION ( 'NONE',  ( -0.0000000000000000000, 0.0000000000000000000, 1.000000000000000000 ) ) ;
#125 = COORDINATED_UNIVERSAL_TIME_OFFSET ( 5, 0, .BEHIND. ) ;
#126 = LOCAL_TIME ( 14, 41, 3.000000000000000000, #212 ) ;
#127 = CIRCLE ( 'NONE', #93, 25.00000000000000000 ) ;
#128 = CARTESIAN_POINT ( 'NONE',  ( 0.0000000000000000000, 16.66666673548740000, -0.0002888083314816860000 ) ) ;
#129 = PRODUCT_RELATED_PRODUCT_CATEGORY ( 'detail', '', ( #151 ) ) ;
#130 = CARTESIAN_POINT ( 'NONE',  ( 0.0000000000000000000, 0.0000000000000000000, 0.0000000000000000000 ) ) ;
#131 = CARTESIAN_POINT ( 'NONE',  ( 0.0000000000000000000, 3.552713678800500100E-015, -4.000000000000000000 ) ) ;
#132 = EDGE_CURVE ( 'NONE', #164, #82, #279, .T. ) ;
#133 = FACE_OUTER_BOUND ( 'NONE', #255, .T. ) ;
#134 = ADVANCED_BREP_SHAPE_REPRESENTATION ( 'Web Model 66764', ( #249, #241 ), #214 ) ;
#135 = ADVANCED_FACE ( 'NONE', ( #111 ), #176, .T. ) ;
#136 = PERSON_AND_ORGANIZATION ( #63, #166 ) ;
#137 = APPLICATION_PROTOCOL_DEFINITION ( 'international standard', 'config_control_design', 1994, #245 ) ;
#138 = PERSON_AND_ORGANIZATION ( #63, #166 ) ;
#139 = PERSON_AND_ORGANIZATION_ROLE ( 'design_supplier' ) ;
#140 = B_SPLINE_CURVE_WITH_KNOTS ( 'NONE', 3,
 ( #130, #259, #57, #80 ),
 .UNSPECIFIED., .F., .F.,
 ( 4, 4 ),
 ( 0.0000000000000000000, 1.000000000000000000 ),
 .UNSPECIFIED. ) ;
#141 = COORDINATED_UNIVERSAL_TIME_OFFSET ( 5, 0, .BEHIND. ) ;
#142 = ORIENTED_EDGE ( 'NONE', *, *, #132, .T. ) ;
#143 = APPROVAL_STATUS ( 'not_yet_approved' ) ;
#144 = CARTESIAN_POINT ( 'NONE',  ( 16.66666673548740000, 16.66666673548740000, -0.0002888083314816860000 ) ) ;
#145 = AXIS2_PLACEMENT_3D ( 'NONE', #257, #177, #236 ) ;
#146 = CARTESIAN_POINT ( 'NONE',  ( -16.66666673548740000, -16.66666673548740000, -0.0002888083314816860000 ) ) ;
#147 = CARTESIAN_POINT ( 'NONE',  ( 25.00000000000000000, 3.265531974910997200E-015, 0.0008664250225351560200 ) ) ;
#148 = ORIENTED_EDGE ( 'NONE', *, *, #220, .F. ) ;
#149 = CARTESIAN_POINT ( 'NONE',  ( 0.0000000000000000000, 0.0000000000000000000, 0.0000000000000000000 ) ) ;
#150 = CARTESIAN_POINT ( 'NONE',  ( 7.654042494670950700E-016, 3.265531974910997200E-015, 0.0008664250225351560200 ) ) ;
#151 = PRODUCT ( 'Web Model 66764', 'Web Model 66764', '', ( #114 ) ) ;
#152 = APPROVAL_DATE_TIME ( #50, #285 ) ;
#153 = CARTESIAN_POINT ( 'NONE',  ( -8.333333344586412400, 8.333333344586412400, 0.0000000000000000000 ) ) ;
#154 = AXIS2_PLACEMENT_3D ( 'NONE', #37, #234, #254 ) ;
#155 = CARTESIAN_POINT ( 'NONE',  ( -25.00000000000000000, 25.00000000000000000, 0.0008664250225351560200 ) ) ;
#156 = CARTESIAN_POINT ( 'NONE',  ( -3.061616997868380300E-015, -25.00000000000000000, 0.0008664250225351560200 ) ) ;
#157 = PRODUCT_DEFINITION_FORMATION_WITH_SPECIFIED_SOURCE ( 'ANY', '', #151, .NOT_KNOWN. ) ;
#158 = CARTESIAN_POINT ( 'NONE',  ( 16.66666673548740000, -3.061617010510550000E-015, -0.0002888083314816860000 ) ) ;
#159 = ORIENTED_EDGE ( 'NONE', *, *, #196, .F. ) ;
#160 = CARTESIAN_POINT ( 'NONE',  ( -16.66666673548740000, -16.66666673548740000, -0.0002888083314816860000 ) ) ;
#161 = CARTESIAN_POINT ( 'NONE',  ( 0.0000000000000000000, 0.0000000000000000000, 0.0000000000000000000 ) ) ;
#162 = APPROVAL_DATE_TIME ( #244, #83 ) ;
#163 = CALENDAR_DATE ( 2017, 31, 1 ) ;
#164 = VERTEX_POINT ( 'NONE', #77 ) ;
#165 = ADVANCED_FACE ( 'NONE', ( #45 ), #32, .T. ) ;
#166 = ORGANIZATION ( 'UNSPECIFIED', 'UNSPECIFIED', '' ) ;
#167 = AXIS2_PLACEMENT_3D ( 'NONE', #173, #119, #232 ) ;
#168 = DATE_TIME_ROLE ( 'creation_date' ) ;
#169 = CALENDAR_DATE ( 2017, 31, 1 ) ;
#170 = CIRCLE ( 'NONE', #181, 25.00000000000000000 ) ;
#171 = CC_DESIGN_PERSON_AND_ORGANIZATION_ASSIGNMENT ( #182, #139, ( #157 ) ) ;
#172 = CARTESIAN_POINT ( 'NONE',  ( 16.66666673548740000, -3.061617010510550000E-015, -0.0002888083314816860000 ) ) ;
#173 = CARTESIAN_POINT ( 'NONE',  ( -4.030936224378092700E-015, 3.265531974910997200E-015, -4.000000000000000000 ) ) ;
#174 = DIRECTION ( 'NONE',  ( 0.0000000000000000000, 0.0000000000000000000, 1.000000000000000000 ) ) ;
#175 = CARTESIAN_POINT ( 'NONE',  ( 25.00000000000000000, 3.552713678800500100E-015, -4.000000000000000000 ) ) ;
#176 =( BOUNDED_SURFACE ( )  B_SPLINE_SURFACE ( 3, 2, ( 
 ( #253, #211, #149, #122, #209, #213, #9, #97, #96 ),
 ( #123, #153, #277, #41, #230, #95, #194, #179, #16 ),
 ( #128, #278, #100, #160, #60, #280, #158, #101, #178 ),
 ( #103, #155, #261, #44, #156, #17, #282, #215, #258 ) ),
 .UNSPECIFIED., .F., .T., .F. ) 
 B_SPLINE_SURFACE_WITH_KNOTS ( ( 4, 4 ),
 ( 3, 2, 2, 2, 3 ),
 ( 0.0000000000000000000, 1.000000000000000000 ),
 ( 0.0000000000000000000, 90.00000000000000000, 180.0000000000000000, 270.0000000000000000, 360.0000000000000000 ),
 .UNSPECIFIED. ) 
 GEOMETRIC_REPRESENTATION_ITEM ( )  RATIONAL_B_SPLINE_SURFACE ( (
 ( 1.000000000000000000, 0.7071067811865480200, 1.000000000000000000, 0.7071067811865480200, 1.000000000000000000, 0.7071067811865480200, 1.000000000000000000, 0.7071067811865480200, 1.000000000000000000),
 ( 1.000000000000000000, 0.7071067811865480200, 1.000000000000000000, 0.7071067811865480200, 1.000000000000000000, 0.7071067811865480200, 1.000000000000000000, 0.7071067811865480200, 1.000000000000000000),
 ( 1.000000000000000000, 0.7071067811865480200, 1.000000000000000000, 0.7071067811865480200, 1.000000000000000000, 0.7071067811865480200, 1.000000000000000000, 0.7071067811865480200, 1.000000000000000000),
 ( 1.000000000000000000, 0.7071067811865480200, 1.000000000000000000, 0.7071067811865480200, 1.000000000000000000, 0.7071067811865480200, 1.000000000000000000, 0.7071067811865480200, 1.000000000000000000) ) ) 
 REPRESENTATION_ITEM ( '' )  SURFACE ( )  );
#177 = DIRECTION ( 'NONE',  ( 0.0000000000000000000, 0.0000000000000000000, 1.000000000000000000 ) ) ;
#178 = CARTESIAN_POINT ( 'NONE',  ( 0.0000000000000000000, 16.66666673548740000, -0.0002888083314816860000 ) ) ;
#179 = CARTESIAN_POINT ( 'NONE',  ( 8.333333344586412400, 8.333333344586412400, 0.0000000000000000000 ) ) ;
#180 = ADVANCED_FACE ( 'NONE', ( #266 ), #195, .T. ) ;
#181 = AXIS2_PLACEMENT_3D ( 'NONE', #150, #174, #76 ) ;
#182 = PERSON_AND_ORGANIZATION ( #63, #166 ) ;
#183 = PERSON_AND_ORGANIZATION ( #63, #166 ) ;
#184 = EDGE_LOOP ( 'NONE', ( #159, #208, #142, #148, #23 ) ) ;
#185 = ORIENTED_EDGE ( 'NONE', *, *, #225, .T. ) ;
#186 = EDGE_CURVE ( 'NONE', #28, #274, #140, .T. ) ;
#187 = APPLICATION_CONTEXT ( 'configuration controlled 3d designs of mechanical parts and assemblies' ) ;
#188 = DIRECTION ( 'NONE',  ( 1.000000000000000000, 0.0000000000000000000, 0.0000000000000000000 ) ) ;
#189 = CARTESIAN_POINT ( 'NONE',  ( -3.061616997868380300E-015, -25.00000000000000000, 0.0008664250225351560200 ) ) ;
#190 = CARTESIAN_POINT ( 'NONE',  ( 0.0000000000000000000, 0.0000000000000000000, 0.0000000000000000000 ) ) ;
#191 = PERSON_AND_ORGANIZATION ( #63, #166 ) ;
#192 = ORIENTED_EDGE ( 'NONE', *, *, #24, .T. ) ;
#193 = DIRECTION ( 'NONE',  ( -4.336808689942020100E-021, -8.519169413872370100E-038, 1.000000000000000000 ) ) ;
#194 = CARTESIAN_POINT ( 'NONE',  ( 8.333333344586412400, -1.530808501001350200E-015, 0.0000000000000000000 ) ) ;
#195 = PLANE ( 'NONE',  #117 ) ;
#196 = EDGE_CURVE ( 'NONE', #260, #33, #13, .T. ) ;
#197 = EDGE_LOOP ( 'NONE', ( #200, #78, #265, #109, #121 ) ) ;
#198 = AXIS2_PLACEMENT_3D ( 'NONE', #239, #108, #104 ) ;
#199 = AXIS2_PLACEMENT_3D ( 'NONE', #42, #193, #235 ) ;
#200 = ORIENTED_EDGE ( 'NONE', *, *, #1, .T. ) ;
#201 =( NAMED_UNIT ( * ) PLANE_ANGLE_UNIT ( ) SI_UNIT ( $, .RADIAN. ) );
#202 = ORIENTED_EDGE ( 'NONE', *, *, #14, .T. ) ;
#203 =( BOUNDED_SURFACE ( )  B_SPLINE_SURFACE ( 3, 2, ( 
 ( #84, #85, #262, #283, #161, #19, #204, #49, #248 ),
 ( #8, #7, #116, #113, #29, #112, #90, #271, #229 ),
 ( #4, #205, #228, #146, #275, #118, #172, #144, #52 ),
 ( #92, #31, #227, #273, #189, #88, #94, #250, #3 ) ),
 .UNSPECIFIED., .F., .T., .F. ) 
 B_SPLINE_SURFACE_WITH_KNOTS ( ( 4, 4 ),
 ( 3, 2, 2, 2, 3 ),
 ( 0.0000000000000000000, 1.000000000000000000 ),
 ( 0.0000000000000000000, 90.00000000000000000, 180.0000000000000000, 270.0000000000000000, 360.0000000000000000 ),
 .UNSPECIFIED. ) 
 GEOMETRIC_REPRESENTATION_ITEM ( )  RATIONAL_B_SPLINE_SURFACE ( (
 ( 1.000000000000000000, 0.7071067811865480200, 1.000000000000000000, 0.7071067811865480200, 1.000000000000000000, 0.7071067811865480200, 1.000000000000000000, 0.7071067811865480200, 1.000000000000000000),
 ( 1.000000000000000000, 0.7071067811865480200, 1.000000000000000000, 0.7071067811865480200, 1.000000000000000000, 0.7071067811865480200, 1.000000000000000000, 0.7071067811865480200, 1.000000000000000000),
 ( 1.000000000000000000, 0.7071067811865480200, 1.000000000000000000, 0.7071067811865480200, 1.000000000000000000, 0.7071067811865480200, 1.000000000000000000, 0.7071067811865480200, 1.000000000000000000),
 ( 1.000000000000000000, 0.7071067811865480200, 1.000000000000000000, 0.7071067811865480200, 1.000000000000000000, 0.7071067811865480200, 1.000000000000000000, 0.7071067811865480200, 1.000000000000000000) ) ) 
 REPRESENTATION_ITEM ( '' )  SURFACE ( )  );
#204 = CARTESIAN_POINT ( 'NONE',  ( 0.0000000000000000000, 0.0000000000000000000, 0.0000000000000000000 ) ) ;
#205 = CARTESIAN_POINT ( 'NONE',  ( -16.66666673548740000, 16.66666673548740000, -0.0002888083314816860000 ) ) ;
#206 = SECURITY_CLASSIFICATION ( '', '', #12 ) ;
#207 = FACE_OUTER_BOUND ( 'NONE', #197, .T. ) ;
#208 = ORIENTED_EDGE ( 'NONE', *, *, #72, .T. ) ;
#209 = CARTESIAN_POINT ( 'NONE',  ( 0.0000000000000000000, 0.0000000000000000000, 0.0000000000000000000 ) ) ;
#210 = PERSON_AND_ORGANIZATION_ROLE ( 'classification_officer' ) ;
#211 = CARTESIAN_POINT ( 'NONE',  ( 0.0000000000000000000, 0.0000000000000000000, 0.0000000000000000000 ) ) ;
#212 = COORDINATED_UNIVERSAL_TIME_OFFSET ( 5, 0, .BEHIND. ) ;
#213 = CARTESIAN_POINT ( 'NONE',  ( 0.0000000000000000000, 0.0000000000000000000, 0.0000000000000000000 ) ) ;
#214 =( GEOMETRIC_REPRESENTATION_CONTEXT ( 3 ) GLOBAL_UNCERTAINTY_ASSIGNED_CONTEXT ( ( #79 ) ) GLOBAL_UNIT_ASSIGNED_CONTEXT ( ( #217, #201, #91 ) ) REPRESENTATION_CONTEXT ( 'NONE', 'WORKASPACE' ) );
#215 = CARTESIAN_POINT ( 'NONE',  ( 25.00000000000000000, 25.00000000000000000, 0.0008664250225351560200 ) ) ;
#216 = DIRECTION ( 'NONE',  ( 0.0000000000000000000, 0.0000000000000000000, -1.000000000000000000 ) ) ;
#217 =( LENGTH_UNIT ( ) NAMED_UNIT ( * ) SI_UNIT ( .MILLI., .METRE. ) );
#218 = DIRECTION ( 'NONE',  ( 1.000000000000000000, 0.0000000000000000000, 0.0000000000000000000 ) ) ;
#219 = SHAPE_DEFINITION_REPRESENTATION ( #105, #134 ) ;
#220 = EDGE_CURVE ( 'NONE', #10, #82, #284, .T. ) ;
#221 = CIRCLE ( 'NONE', #167, 25.00000000000000000 ) ;
#222 = CC_DESIGN_PERSON_AND_ORGANIZATION_ASSIGNMENT ( #138, #210, ( #206 ) ) ;
#223 = CIRCLE ( 'NONE', #198, 25.00000000000000000 ) ;
#224 = CARTESIAN_POINT ( 'NONE',  ( 0.0000000000000000000, 0.0000000000000000000, 0.0000000000000000000 ) ) ;
#225 = EDGE_CURVE ( 'NONE', #82, #274, #223, .T. ) ;
#226 = APPROVAL_ROLE ( '' ) ;
#227 = CARTESIAN_POINT ( 'NONE',  ( -25.00000000000000000, 1.530808498934190100E-015, 0.0008664250225351560200 ) ) ;
#228 = CARTESIAN_POINT ( 'NONE',  ( -16.66666673548740000, 1.020539003503520200E-015, -0.0002888083314816860000 ) ) ;
#229 = CARTESIAN_POINT ( 'NONE',  ( 0.0000000000000000000, 8.333333344586412400, 0.0000000000000000000 ) ) ;
#230 = CARTESIAN_POINT ( 'NONE',  ( -1.020539000667570000E-015, -8.333333344586412400, 0.0000000000000000000 ) ) ;
#231 = APPROVAL_STATUS ( 'not_yet_approved' ) ;
#232 = DIRECTION ( 'NONE',  ( 1.000000000000000000, 0.0000000000000000000, 0.0000000000000000000 ) ) ;
#233 = APPROVAL_PERSON_ORGANIZATION ( #136, #83, #98 ) ;
#234 = DIRECTION ( 'NONE',  ( 0.0000000000000000000, 0.0000000000000000000, 1.000000000000000000 ) ) ;
#235 = DIRECTION ( 'NONE',  ( 1.000000000000000000, 0.0000000000000000000, 0.0000000000000000000 ) ) ;
#236 = DIRECTION ( 'NONE',  ( 1.000000000000000000, 0.0000000000000000000, 0.0000000000000000000 ) ) ;
#237 = CC_DESIGN_DATE_AND_TIME_ASSIGNMENT ( #26, #75, ( #206 ) ) ;
#238 = ORIENTED_EDGE ( 'NONE', *, *, #24, .F. ) ;
#239 = CARTESIAN_POINT ( 'NONE',  ( 7.654042494670950700E-016, 3.265531974910997200E-015, 0.0008664250225351560200 ) ) ;
#240 = ADVANCED_FACE ( 'NONE', ( #207 ), #106, .T. ) ;
#241 = AXIS2_PLACEMENT_3D ( 'NONE', #224, #269, #188 ) ;
#242 = EDGE_LOOP ( 'NONE', ( #59, #71 ) ) ;
#243 = ADVANCED_FACE ( 'NONE', ( #133 ), #203, .T. ) ;
#244 = DATE_AND_TIME ( #18, #58 ) ;
#245 = APPLICATION_CONTEXT ( 'configuration controlled 3d designs of mechanical parts and assemblies' ) ;
#246 = PERSON_AND_ORGANIZATION_ROLE ( 'creator' ) ;
#247 = ORIENTED_EDGE ( 'NONE', *, *, #186, .F. ) ;
#248 = CARTESIAN_POINT ( 'NONE',  ( 0.0000000000000000000, 0.0000000000000000000, 0.0000000000000000000 ) ) ;
#249 = MANIFOLD_SOLID_BREP ( 'Imported1', #51 ) ;
#250 = CARTESIAN_POINT ( 'NONE',  ( 25.00000000000000000, 25.00000000000000000, 0.0008664250225351560200 ) ) ;
#251 = DIRECTION ( 'NONE',  ( -4.336808689942020100E-021, -8.519169413872370100E-038, 1.000000000000000000 ) ) ;
#252 = B_SPLINE_CURVE_WITH_KNOTS ( 'NONE', 3,
 ( #53, #74, #35, #11 ),
 .UNSPECIFIED., .F., .F.,
 ( 4, 4 ),
 ( 0.0000000000000000000, 1.000000000000000000 ),
 .UNSPECIFIED. ) ;
#253 = CARTESIAN_POINT ( 'NONE',  ( 0.0000000000000000000, 0.0000000000000000000, 0.0000000000000000000 ) ) ;
#254 = DIRECTION ( 'NONE',  ( 1.000000000000000000, 0.0000000000000000000, 0.0000000000000000000 ) ) ;
#255 = EDGE_LOOP ( 'NONE', ( #247, #192, #68, #185 ) ) ;
#256 = CC_DESIGN_PERSON_AND_ORGANIZATION_ASSIGNMENT ( #191, #25, ( #151 ) ) ;
#257 = CARTESIAN_POINT ( 'NONE',  ( 7.654042494670950700E-016, 3.265531974910997200E-015, 0.0008664250225351560200 ) ) ;
#258 = CARTESIAN_POINT ( 'NONE',  ( 0.0000000000000000000, 25.00000000000000000, 0.0008664250225351560200 ) ) ;
#259 = CARTESIAN_POINT ( 'NONE',  ( 0.0000000000000000000, 8.333333344586412400, 0.0000000000000000000 ) ) ;
#260 = VERTEX_POINT ( 'NONE', #30 ) ;
#261 = CARTESIAN_POINT ( 'NONE',  ( -25.00000000000000000, 1.530808498934190100E-015, 0.0008664250225351560200 ) ) ;
#262 = CARTESIAN_POINT ( 'NONE',  ( 0.0000000000000000000, 0.0000000000000000000, 0.0000000000000000000 ) ) ;
#263 = CARTESIAN_POINT ( 'NONE',  ( -1.925929944387235900E-031, 25.00000000000000700, 0.0008664250225351560200 ) ) ;
#264 = CALENDAR_DATE ( 2017, 31, 1 ) ;
#265 = ORIENTED_EDGE ( 'NONE', *, *, #110, .F. ) ;
#266 = FACE_OUTER_BOUND ( 'NONE', #242, .T. ) ;
#267 = CC_DESIGN_APPROVAL ( #83, ( #206 ) ) ;
#268 = PERSON_AND_ORGANIZATION ( #63, #166 ) ;
#269 = DIRECTION ( 'NONE',  ( 0.0000000000000000000, 0.0000000000000000000, 1.000000000000000000 ) ) ;
#270 = PERSON_AND_ORGANIZATION ( #63, #166 ) ;
#271 = CARTESIAN_POINT ( 'NONE',  ( 8.333333344586412400, 8.333333344586412400, 0.0000000000000000000 ) ) ;
#272 = AXIS2_PLACEMENT_3D ( 'NONE', #131, #65, #218 ) ;
#273 = CARTESIAN_POINT ( 'NONE',  ( -25.00000000000000000, -25.00000000000000000, 0.0008664250225351560200 ) ) ;
#274 = VERTEX_POINT ( 'NONE', #263 ) ;
#275 = CARTESIAN_POINT ( 'NONE',  ( -2.041078007007030200E-015, -16.66666673548740000, -0.0002888083314816860000 ) ) ;
#276 = CARTESIAN_POINT ( 'NONE',  ( -4.030936224378092700E-015, 3.265531974910997200E-015, -4.000000000000000000 ) ) ;
#277 = CARTESIAN_POINT ( 'NONE',  ( -8.333333344586412400, 5.102695003337830200E-016, 0.0000000000000000000 ) ) ;
#278 = CARTESIAN_POINT ( 'NONE',  ( -16.66666673548740000, 16.66666673548740000, -0.0002888083314816860000 ) ) ;
#279 = LINE ( 'NONE', #175, #102 ) ;
#280 = CARTESIAN_POINT ( 'NONE',  ( 16.66666673548740000, -16.66666673548740000, -0.0002888083314816860000 ) ) ;
#281 = CC_DESIGN_APPROVAL ( #285, ( #15 ) ) ;
#282 = CARTESIAN_POINT ( 'NONE',  ( 25.00000000000000000, -4.592425496802569600E-015, 0.0008664250225351560200 ) ) ;
#283 = CARTESIAN_POINT ( 'NONE',  ( 0.0000000000000000000, 0.0000000000000000000, 0.0000000000000000000 ) ) ;
#284 = CIRCLE ( 'NONE', #145, 25.00000000000000000 ) ;
#285 = APPROVAL ( #143, 'UNSPECIFIED' ) ;
ENDSEC;
END-ISO-10303-21;
