ISO-10303-21;
HEADER;
FILE_DESCRIPTION (( 'STEP AP203' ),
    '1' );
FILE_NAME ('Web Model 84456.STEP',
    '2017-02-01T15:44:33',
    ( '' ),
    ( '' ),
    'SwSTEP 2.0',
    'SolidWorks 2016',
    '' );
FILE_SCHEMA (( 'CONFIG_CONTROL_DESIGN' ));
ENDSEC;

DATA;
#1 = ORIENTED_EDGE ( 'NONE', *, *, #29, .F. ) ;
#2 = CC_DESIGN_PERSON_AND_ORGANIZATION_ASSIGNMENT ( #89, #41, ( #168 ) ) ;
#3 = DIRECTION ( 'NONE',  ( 0.0000000000000000000, 0.0000000000000000000, 1.000000000000000000 ) ) ;
#4 = CARTESIAN_POINT ( 'NONE',  ( 0.0000000000000000000, 0.0000000000000000000, 0.0000000000000000000 ) ) ;
#5 = APPROVAL_STATUS ( 'not_yet_approved' ) ;
#6 = PERSON_AND_ORGANIZATION ( #136, #45 ) ;
#7 = APPLICATION_CONTEXT ( 'configuration controlled 3d designs of mechanical parts and assemblies' ) ;
#8 = LOCAL_TIME ( 10, 44, 33.00000000000000000, #81 ) ;
#9 = EDGE_CURVE ( 'NONE', #47, #156, #161, .T. ) ;
#10 = APPROVAL_DATE_TIME ( #152, #43 ) ;
#11 = ORIENTED_EDGE ( 'NONE', *, *, #99, .F. ) ;
#12 = AXIS2_PLACEMENT_3D ( 'NONE', #69, #153, #93 ) ;
#13 = PLANE ( 'NONE',  #23 ) ;
#14 = EDGE_LOOP ( 'NONE', ( #147, #32, #110, #70 ) ) ;
#15 = ORIENTED_EDGE ( 'NONE', *, *, #92, .T. ) ;
#16 = CARTESIAN_POINT ( 'NONE',  ( -15.00000000000000000, 0.0000000000000000000, 0.0000000000000000000 ) ) ;
#17 = EDGE_CURVE ( 'NONE', #98, #59, #109, .T. ) ;
#18 = PRODUCT_DEFINITION_SHAPE ( 'NONE', 'NONE',  #46 ) ;
#19 = DIRECTION ( 'NONE',  ( -0.0000000000000000000, -0.0000000000000000000, -1.000000000000000000 ) ) ;
#20 = PERSON_AND_ORGANIZATION_ROLE ( 'design_owner' ) ;
#21 = COORDINATED_UNIVERSAL_TIME_OFFSET ( 5, 0, .BEHIND. ) ;
#22 = DATE_AND_TIME ( #33, #166 ) ;
#23 = AXIS2_PLACEMENT_3D ( 'NONE', #124, #174, #95 ) ;
#24 = DIRECTION ( 'NONE',  ( -0.0000000000000000000, -0.0000000000000000000, -1.000000000000000000 ) ) ;
#25 = DIRECTION ( 'NONE',  ( 1.000000000000000000, 0.0000000000000000000, 0.0000000000000000000 ) ) ;
#26 = PERSON_AND_ORGANIZATION_ROLE ( 'creator' ) ;
#27 = PERSON_AND_ORGANIZATION_ROLE ( 'creator' ) ;
#28 = PERSON_AND_ORGANIZATION ( #136, #45 ) ;
#29 = EDGE_CURVE ( 'NONE', #59, #156, #155, .T. ) ;
#30 = CIRCLE ( 'NONE', #158, 15.00000000000000000 ) ;
#31 = APPROVAL ( #101, 'UNSPECIFIED' ) ;
#32 = ORIENTED_EDGE ( 'NONE', *, *, #9, .T. ) ;
#33 = CALENDAR_DATE ( 2017, 1, 2 ) ;
#34 = CARTESIAN_POINT ( 'NONE',  ( 0.0000000000000000000, 0.0000000000000000000, 4.000000000000000000 ) ) ;
#35 = CARTESIAN_POINT ( 'NONE',  ( 0.0000000000000000000, 0.0000000000000000000, 4.000000000000000000 ) ) ;
#36 = DIRECTION ( 'NONE',  ( 1.000000000000000000, 0.0000000000000000000, 0.0000000000000000000 ) ) ;
#37 = DIRECTION ( 'NONE',  ( 0.0000000000000000000, 0.0000000000000000000, 1.000000000000000000 ) ) ;
#38 = CC_DESIGN_PERSON_AND_ORGANIZATION_ASSIGNMENT ( #6, #78, ( #145 ) ) ;
#39 = FACE_OUTER_BOUND ( 'NONE', #14, .T. ) ;
#40 = DATE_TIME_ROLE ( 'classification_date' ) ;
#41 = PERSON_AND_ORGANIZATION_ROLE ( 'design_supplier' ) ;
#42 = CALENDAR_DATE ( 2017, 1, 2 ) ;
#43 = APPROVAL ( #117, 'UNSPECIFIED' ) ;
#44 = LOCAL_TIME ( 10, 44, 33.00000000000000000, #21 ) ;
#45 = ORGANIZATION ( 'UNSPECIFIED', 'UNSPECIFIED', '' ) ;
#46 = PRODUCT_DEFINITION ( 'UNKNOWN', '', #168, #91 ) ;
#47 = VERTEX_POINT ( 'NONE', #66 ) ;
#48 = ORIENTED_EDGE ( 'NONE', *, *, #135, .F. ) ;
#49 = PRODUCT ( 'Web Model 84456', 'Web Model 84456', '', ( #74 ) ) ;
#50 = VECTOR ( 'NONE', #24, 1000.000000000000000 ) ;
#51 = AXIS2_PLACEMENT_3D ( 'NONE', #35, #19, #175 ) ;
#52 = ADVANCED_FACE ( 'NONE', ( #150 ), #13, .T. ) ;
#53 = AXIS2_PLACEMENT_3D ( 'NONE', #111, #3, #25 ) ;
#54 = CC_DESIGN_DATE_AND_TIME_ASSIGNMENT ( #75, #40, ( #145 ) ) ;
#55 = DIRECTION ( 'NONE',  ( 0.0000000000000000000, 0.0000000000000000000, 1.000000000000000000 ) ) ;
#56 = APPROVAL_ROLE ( '' ) ;
#57 =( NAMED_UNIT ( * ) PLANE_ANGLE_UNIT ( ) SI_UNIT ( $, .RADIAN. ) );
#58 = AXIS2_PLACEMENT_3D ( 'NONE', #144, #55, #143 ) ;
#59 = VERTEX_POINT ( 'NONE', #16 ) ;
#60 = CALENDAR_DATE ( 2017, 1, 2 ) ;
#61 = ADVANCED_BREP_SHAPE_REPRESENTATION ( 'Web Model 84456', ( #90, #163 ), #121 ) ;
#62 = APPROVAL ( #5, 'UNSPECIFIED' ) ;
#63 = SHAPE_DEFINITION_REPRESENTATION ( #18, #61 ) ;
#64 = ORIENTED_EDGE ( 'NONE', *, *, #99, .T. ) ;
#65 = CC_DESIGN_SECURITY_CLASSIFICATION ( #145, ( #168 ) ) ;
#66 = CARTESIAN_POINT ( 'NONE',  ( 15.00000000000000000, 1.836970198721029600E-015, 4.000000000000000000 ) ) ;
#67 = CYLINDRICAL_SURFACE ( 'NONE', #12, 15.00000000000000000 ) ;
#68 = DATE_AND_TIME ( #104, #8 ) ;
#69 = CARTESIAN_POINT ( 'NONE',  ( 0.0000000000000000000, 0.0000000000000000000, 4.000000000000000000 ) ) ;
#70 = ORIENTED_EDGE ( 'NONE', *, *, #17, .F. ) ;
#71 = CARTESIAN_POINT ( 'NONE',  ( 15.00000000000000000, 1.836970198721029600E-015, 0.0000000000000000000 ) ) ;
#72 = DIRECTION ( 'NONE',  ( 0.0000000000000000000, 0.0000000000000000000, 1.000000000000000000 ) ) ;
#73 =( LENGTH_UNIT ( ) NAMED_UNIT ( * ) SI_UNIT ( .MILLI., .METRE. ) );
#74 = MECHANICAL_CONTEXT ( 'NONE', #169, 'mechanical' ) ;
#75 = DATE_AND_TIME ( #60, #44 ) ;
#76 = CC_DESIGN_APPROVAL ( #31, ( #145 ) ) ;
#77 =( NAMED_UNIT ( * ) SI_UNIT ( $, .STERADIAN. ) SOLID_ANGLE_UNIT ( ) );
#78 = PERSON_AND_ORGANIZATION_ROLE ( 'classification_officer' ) ;
#79 = EDGE_LOOP ( 'NONE', ( #1, #48 ) ) ;
#80 = COORDINATED_UNIVERSAL_TIME_OFFSET ( 5, 0, .BEHIND. ) ;
#81 = COORDINATED_UNIVERSAL_TIME_OFFSET ( 5, 0, .BEHIND. ) ;
#82 = PERSON_AND_ORGANIZATION ( #136, #45 ) ;
#83 = CARTESIAN_POINT ( 'NONE',  ( 15.00000000000000000, 1.836970198721029600E-015, 4.000000000000000000 ) ) ;
#84 = DIRECTION ( 'NONE',  ( 1.000000000000000000, 0.0000000000000000000, 0.0000000000000000000 ) ) ;
#85 = ADVANCED_FACE ( 'NONE', ( #39 ), #94, .T. ) ;
#86 = PERSON_AND_ORGANIZATION ( #136, #45 ) ;
#87 = LOCAL_TIME ( 10, 44, 33.00000000000000000, #122 ) ;
#88 = VECTOR ( 'NONE', #140, 1000.000000000000000 ) ;
#89 = PERSON_AND_ORGANIZATION ( #136, #45 ) ;
#90 = MANIFOLD_SOLID_BREP ( 'Extrude1', #134 ) ;
#91 = DESIGN_CONTEXT ( 'detailed design', #7, 'design' ) ;
#92 = EDGE_CURVE ( 'NONE', #47, #98, #107, .T. ) ;
#93 = DIRECTION ( 'NONE',  ( -1.000000000000000000, 0.0000000000000000000, 0.0000000000000000000 ) ) ;
#94 = CYLINDRICAL_SURFACE ( 'NONE', #51, 15.00000000000000000 ) ;
#95 = DIRECTION ( 'NONE',  ( 1.000000000000000000, 0.0000000000000000000, -0.0000000000000000000 ) ) ;
#96 = DATE_TIME_ROLE ( 'creation_date' ) ;
#97 = CIRCLE ( 'NONE', #53, 15.00000000000000000 ) ;
#98 = VERTEX_POINT ( 'NONE', #105 ) ;
#99 = EDGE_CURVE ( 'NONE', #98, #47, #97, .T. ) ;
#100 = APPLICATION_PROTOCOL_DEFINITION ( 'international standard', 'config_control_design', 1994, #7 ) ;
#101 = APPROVAL_STATUS ( 'not_yet_approved' ) ;
#102 = AXIS2_PLACEMENT_3D ( 'NONE', #34, #37, #36 ) ;
#103 = LOCAL_TIME ( 10, 44, 33.00000000000000000, #120 ) ;
#104 = CALENDAR_DATE ( 2017, 1, 2 ) ;
#105 = CARTESIAN_POINT ( 'NONE',  ( -15.00000000000000000, 0.0000000000000000000, 4.000000000000000000 ) ) ;
#106 = CARTESIAN_POINT ( 'NONE',  ( -15.00000000000000000, 0.0000000000000000000, 4.000000000000000000 ) ) ;
#107 = CIRCLE ( 'NONE', #102, 15.00000000000000000 ) ;
#108 = DATE_AND_TIME ( #131, #103 ) ;
#109 = LINE ( 'NONE', #106, #50 ) ;
#110 = ORIENTED_EDGE ( 'NONE', *, *, #135, .T. ) ;
#111 = CARTESIAN_POINT ( 'NONE',  ( 0.0000000000000000000, 0.0000000000000000000, 4.000000000000000000 ) ) ;
#112 = CC_DESIGN_APPROVAL ( #43, ( #46 ) ) ;
#113 = DIRECTION ( 'NONE',  ( 1.000000000000000000, 0.0000000000000000000, 0.0000000000000000000 ) ) ;
#114 = ORIENTED_EDGE ( 'NONE', *, *, #17, .T. ) ;
#115 = APPROVAL_ROLE ( '' ) ;
#116 = PERSON_AND_ORGANIZATION ( #136, #45 ) ;
#117 = APPROVAL_STATUS ( 'not_yet_approved' ) ;
#118 = AXIS2_PLACEMENT_3D ( 'NONE', #139, #123, #84 ) ;
#119 = ORIENTED_EDGE ( 'NONE', *, *, #9, .F. ) ;
#120 = COORDINATED_UNIVERSAL_TIME_OFFSET ( 5, 0, .BEHIND. ) ;
#121 =( GEOMETRIC_REPRESENTATION_CONTEXT ( 3 ) GLOBAL_UNCERTAINTY_ASSIGNED_CONTEXT ( ( #130 ) ) GLOBAL_UNIT_ASSIGNED_CONTEXT ( ( #73, #57, #77 ) ) REPRESENTATION_CONTEXT ( 'NONE', 'WORKASPACE' ) );
#122 = COORDINATED_UNIVERSAL_TIME_OFFSET ( 5, 0, .BEHIND. ) ;
#123 = DIRECTION ( 'NONE',  ( 0.0000000000000000000, 0.0000000000000000000, 1.000000000000000000 ) ) ;
#124 = CARTESIAN_POINT ( 'NONE',  ( 0.0000000000000000000, 0.0000000000000000000, 4.000000000000000000 ) ) ;
#125 = APPROVAL_DATE_TIME ( #108, #62 ) ;
#126 = APPROVAL_PERSON_ORGANIZATION ( #82, #43, #146 ) ;
#127 = CC_DESIGN_PERSON_AND_ORGANIZATION_ASSIGNMENT ( #116, #27, ( #46 ) ) ;
#128 = PLANE ( 'NONE',  #58 ) ;
#129 = DIRECTION ( 'NONE',  ( 1.000000000000000000, 0.0000000000000000000, 0.0000000000000000000 ) ) ;
#130 = UNCERTAINTY_MEASURE_WITH_UNIT (LENGTH_MEASURE( 1.000000000000000100E-005 ), #73, 'distance_accuracy_value', 'NONE');
#131 = CALENDAR_DATE ( 2017, 1, 2 ) ;
#132 = APPLICATION_PROTOCOL_DEFINITION ( 'international standard', 'config_control_design', 1994, #169 ) ;
#133 = SECURITY_CLASSIFICATION_LEVEL ( 'unclassified' ) ;
#134 = CLOSED_SHELL ( 'NONE', ( #85, #164, #52, #162 ) ) ;
#135 = EDGE_CURVE ( 'NONE', #156, #59, #30, .T. ) ;
#136 = PERSON ( 'UNSPECIFIED', 'UNSPECIFIED', 'UNSPECIFIED', ('UNSPECIFIED'), ('UNSPECIFIED'), ('UNSPECIFIED') ) ;
#137 = CC_DESIGN_DATE_AND_TIME_ASSIGNMENT ( #68, #96, ( #46 ) ) ;
#138 = EDGE_LOOP ( 'NONE', ( #119, #11, #114, #172 ) ) ;
#139 = CARTESIAN_POINT ( 'NONE',  ( 0.0000000000000000000, 0.0000000000000000000, 0.0000000000000000000 ) ) ;
#140 = DIRECTION ( 'NONE',  ( -0.0000000000000000000, -0.0000000000000000000, -1.000000000000000000 ) ) ;
#141 = CC_DESIGN_APPROVAL ( #62, ( #168 ) ) ;
#142 = FACE_OUTER_BOUND ( 'NONE', #138, .T. ) ;
#143 = DIRECTION ( 'NONE',  ( 1.000000000000000000, 0.0000000000000000000, -0.0000000000000000000 ) ) ;
#144 = CARTESIAN_POINT ( 'NONE',  ( 0.0000000000000000000, 0.0000000000000000000, 0.0000000000000000000 ) ) ;
#145 = SECURITY_CLASSIFICATION ( '', '', #133 ) ;
#146 = APPROVAL_ROLE ( '' ) ;
#147 = ORIENTED_EDGE ( 'NONE', *, *, #92, .F. ) ;
#148 = APPROVAL_DATE_TIME ( #22, #31 ) ;
#149 = PRODUCT_RELATED_PRODUCT_CATEGORY ( 'detail', '', ( #49 ) ) ;
#150 = FACE_OUTER_BOUND ( 'NONE', #165, .T. ) ;
#151 = PERSON_AND_ORGANIZATION ( #136, #45 ) ;
#152 = DATE_AND_TIME ( #42, #87 ) ;
#153 = DIRECTION ( 'NONE',  ( -0.0000000000000000000, -0.0000000000000000000, -1.000000000000000000 ) ) ;
#154 = CARTESIAN_POINT ( 'NONE',  ( 0.0000000000000000000, 0.0000000000000000000, 0.0000000000000000000 ) ) ;
#155 = CIRCLE ( 'NONE', #118, 15.00000000000000000 ) ;
#156 = VERTEX_POINT ( 'NONE', #71 ) ;
#157 = APPROVAL_PERSON_ORGANIZATION ( #28, #62, #115 ) ;
#158 = AXIS2_PLACEMENT_3D ( 'NONE', #154, #72, #129 ) ;
#159 = PERSON_AND_ORGANIZATION ( #136, #45 ) ;
#160 = APPROVAL_PERSON_ORGANIZATION ( #151, #31, #56 ) ;
#161 = LINE ( 'NONE', #83, #88 ) ;
#162 = ADVANCED_FACE ( 'NONE', ( #171 ), #128, .F. ) ;
#163 = AXIS2_PLACEMENT_3D ( 'NONE', #4, #167, #113 ) ;
#164 = ADVANCED_FACE ( 'NONE', ( #142 ), #67, .T. ) ;
#165 = EDGE_LOOP ( 'NONE', ( #64, #15 ) ) ;
#166 = LOCAL_TIME ( 10, 44, 33.00000000000000000, #80 ) ;
#167 = DIRECTION ( 'NONE',  ( 0.0000000000000000000, 0.0000000000000000000, 1.000000000000000000 ) ) ;
#168 = PRODUCT_DEFINITION_FORMATION_WITH_SPECIFIED_SOURCE ( 'ANY', '', #49, .NOT_KNOWN. ) ;
#169 = APPLICATION_CONTEXT ( 'configuration controlled 3d designs of mechanical parts and assemblies' ) ;
#170 = CC_DESIGN_PERSON_AND_ORGANIZATION_ASSIGNMENT ( #86, #26, ( #168 ) ) ;
#171 = FACE_OUTER_BOUND ( 'NONE', #79, .T. ) ;
#172 = ORIENTED_EDGE ( 'NONE', *, *, #29, .T. ) ;
#173 = CC_DESIGN_PERSON_AND_ORGANIZATION_ASSIGNMENT ( #159, #20, ( #49 ) ) ;
#174 = DIRECTION ( 'NONE',  ( 0.0000000000000000000, 0.0000000000000000000, 1.000000000000000000 ) ) ;
#175 = DIRECTION ( 'NONE',  ( -1.000000000000000000, 0.0000000000000000000, 0.0000000000000000000 ) ) ;
ENDSEC;
END-ISO-10303-21;
