ISO-10303-21;
HEADER;
FILE_DESCRIPTION (( 'STEP AP203' ),
    '1' );
FILE_NAME ('Web Model 83359_83365.step',
    '2017-04-26T17:35:07',
    ( '' ),
    ( '' ),
    'SwSTEP 2.0',
    'SolidWorks 2016',
    '' );
FILE_SCHEMA (( 'CONFIG_CONTROL_DESIGN' ));
ENDSEC;

DATA;
#1 = FACE_OUTER_BOUND ( 'NONE', #108, .T. ) ;
#2 = SHAPE_DEFINITION_REPRESENTATION ( #35, #46 ) ;
#3 = CARTESIAN_POINT ( 'NONE',  ( -20.00000000000000000, 0.0000000000000000000, 1.100000000000000100 ) ) ;
#4 = SECURITY_CLASSIFICATION ( '', '', #70 ) ;
#5 = COORDINATED_UNIVERSAL_TIME_OFFSET ( 5, 0, .BEHIND. ) ;
#6 = VECTOR ( 'NONE', #158, 1000.000000000000000 ) ;
#7 = CC_DESIGN_PERSON_AND_ORGANIZATION_ASSIGNMENT ( #144, #132, ( #29 ) ) ;
#8 =( NAMED_UNIT ( * ) PLANE_ANGLE_UNIT ( ) SI_UNIT ( $, .RADIAN. ) );
#9 = DIRECTION ( 'NONE',  ( 1.000000000000000000, 0.0000000000000000000, 0.0000000000000000000 ) ) ;
#10 = CARTESIAN_POINT ( 'NONE',  ( 0.0000000000000000000, 0.0000000000000000000, 1.100000000000000100 ) ) ;
#11 = LINE ( 'NONE', #127, #6 ) ;
#12 = ORIENTED_EDGE ( 'NONE', *, *, #155, .T. ) ;
#13 = VECTOR ( 'NONE', #22, 1000.000000000000000 ) ;
#14 = MECHANICAL_CONTEXT ( 'NONE', #113, 'mechanical' ) ;
#15 = ORIENTED_EDGE ( 'NONE', *, *, #136, .F. ) ;
#16 = ADVANCED_FACE ( 'NONE', ( #105 ), #27, .T. ) ;
#17 = CC_DESIGN_PERSON_AND_ORGANIZATION_ASSIGNMENT ( #143, #58, ( #29 ) ) ;
#18 = APPLICATION_PROTOCOL_DEFINITION ( 'international standard', 'config_control_design', 1994, #113 ) ;
#19 = CARTESIAN_POINT ( 'NONE',  ( 0.0000000000000000000, 0.0000000000000000000, 0.0000000000000000000 ) ) ;
#20 = CC_DESIGN_APPROVAL ( #36, ( #29 ) ) ;
#21 = DIRECTION ( 'NONE',  ( 1.000000000000000000, 0.0000000000000000000, -0.0000000000000000000 ) ) ;
#22 = DIRECTION ( 'NONE',  ( -0.0000000000000000000, -0.0000000000000000000, -1.000000000000000000 ) ) ;
#23 = CIRCLE ( 'NONE', #100, 20.00000000000000000 ) ;
#24 = PRODUCT_DEFINITION ( 'UNKNOWN', '', #29, #75 ) ;
#25 = DIRECTION ( 'NONE',  ( -0.0000000000000000000, -0.0000000000000000000, -1.000000000000000000 ) ) ;
#26 = CIRCLE ( 'NONE', #175, 20.00000000000000000 ) ;
#27 = CYLINDRICAL_SURFACE ( 'NONE', #168, 20.00000000000000000 ) ;
#28 = CC_DESIGN_PERSON_AND_ORGANIZATION_ASSIGNMENT ( #119, #53, ( #24 ) ) ;
#29 = PRODUCT_DEFINITION_FORMATION_WITH_SPECIFIED_SOURCE ( 'ANY', '', #146, .NOT_KNOWN. ) ;
#30 = CC_DESIGN_DATE_AND_TIME_ASSIGNMENT ( #126, #47, ( #24 ) ) ;
#31 = APPROVAL_ROLE ( '' ) ;
#32 = PRODUCT_RELATED_PRODUCT_CATEGORY ( 'detail', '', ( #146 ) ) ;
#33 = APPROVAL ( #111, 'UNSPECIFIED' ) ;
#34 = DATE_AND_TIME ( #165, #164 ) ;
#35 = PRODUCT_DEFINITION_SHAPE ( 'NONE', 'NONE',  #24 ) ;
#36 = APPROVAL ( #43, 'UNSPECIFIED' ) ;
#37 = ADVANCED_FACE ( 'NONE', ( #102 ), #67, .F. ) ;
#38 = CC_DESIGN_APPROVAL ( #33, ( #24 ) ) ;
#39 = ADVANCED_FACE ( 'NONE', ( #174 ), #166, .T. ) ;
#40 = CC_DESIGN_SECURITY_CLASSIFICATION ( #4, ( #29 ) ) ;
#41 = CARTESIAN_POINT ( 'NONE',  ( 20.00000000000000000, 2.449293598294706500E-015, 0.0000000000000000000 ) ) ;
#42 =( NAMED_UNIT ( * ) SI_UNIT ( $, .STERADIAN. ) SOLID_ANGLE_UNIT ( ) );
#43 = APPROVAL_STATUS ( 'not_yet_approved' ) ;
#44 = PERSON_AND_ORGANIZATION_ROLE ( 'classification_officer' ) ;
#45 = PERSON_AND_ORGANIZATION ( #66, #76 ) ;
#46 = ADVANCED_BREP_SHAPE_REPRESENTATION ( 'Web Model 83359_83365', ( #139, #125 ), #59 ) ;
#47 = DATE_TIME_ROLE ( 'creation_date' ) ;
#48 = VERTEX_POINT ( 'NONE', #41 ) ;
#49 = AXIS2_PLACEMENT_3D ( 'NONE', #169, #82, #9 ) ;
#50 = CARTESIAN_POINT ( 'NONE',  ( 0.0000000000000000000, 0.0000000000000000000, 1.100000000000000100 ) ) ;
#51 = EDGE_CURVE ( 'NONE', #48, #86, #26, .T. ) ;
#52 = CC_DESIGN_APPROVAL ( #61, ( #4 ) ) ;
#53 = PERSON_AND_ORGANIZATION_ROLE ( 'creator' ) ;
#54 = DATE_TIME_ROLE ( 'classification_date' ) ;
#55 = DIRECTION ( 'NONE',  ( -1.000000000000000000, 0.0000000000000000000, 0.0000000000000000000 ) ) ;
#56 = CIRCLE ( 'NONE', #49, 20.00000000000000000 ) ;
#57 = DIRECTION ( 'NONE',  ( 1.000000000000000000, 0.0000000000000000000, -0.0000000000000000000 ) ) ;
#58 = PERSON_AND_ORGANIZATION_ROLE ( 'creator' ) ;
#59 =( GEOMETRIC_REPRESENTATION_CONTEXT ( 3 ) GLOBAL_UNCERTAINTY_ASSIGNED_CONTEXT ( ( #163 ) ) GLOBAL_UNIT_ASSIGNED_CONTEXT ( ( #68, #8, #42 ) ) REPRESENTATION_CONTEXT ( 'NONE', 'WORKASPACE' ) );
#60 = DIRECTION ( 'NONE',  ( 0.0000000000000000000, 0.0000000000000000000, 1.000000000000000000 ) ) ;
#61 = APPROVAL ( #147, 'UNSPECIFIED' ) ;
#62 = CIRCLE ( 'NONE', #156, 20.00000000000000000 ) ;
#63 = CARTESIAN_POINT ( 'NONE',  ( 0.0000000000000000000, 0.0000000000000000000, 1.100000000000000100 ) ) ;
#64 = PERSON_AND_ORGANIZATION ( #66, #76 ) ;
#65 = CC_DESIGN_PERSON_AND_ORGANIZATION_ASSIGNMENT ( #64, #44, ( #4 ) ) ;
#66 = PERSON ( 'UNSPECIFIED', 'UNSPECIFIED', 'UNSPECIFIED', ('UNSPECIFIED'), ('UNSPECIFIED'), ('UNSPECIFIED') ) ;
#67 = PLANE ( 'NONE',  #171 ) ;
#68 =( LENGTH_UNIT ( ) NAMED_UNIT ( * ) SI_UNIT ( .MILLI., .METRE. ) );
#69 = DIRECTION ( 'NONE',  ( 0.0000000000000000000, 0.0000000000000000000, 1.000000000000000000 ) ) ;
#70 = SECURITY_CLASSIFICATION_LEVEL ( 'unclassified' ) ;
#71 = AXIS2_PLACEMENT_3D ( 'NONE', #10, #92, #21 ) ;
#72 = ORIENTED_EDGE ( 'NONE', *, *, #138, .F. ) ;
#73 = ORIENTED_EDGE ( 'NONE', *, *, #145, .T. ) ;
#74 = ORIENTED_EDGE ( 'NONE', *, *, #145, .F. ) ;
#75 = DESIGN_CONTEXT ( 'detailed design', #152, 'design' ) ;
#76 = ORGANIZATION ( 'UNSPECIFIED', 'UNSPECIFIED', '' ) ;
#77 = APPROVAL_PERSON_ORGANIZATION ( #45, #33, #95 ) ;
#78 = ORIENTED_EDGE ( 'NONE', *, *, #155, .F. ) ;
#79 = LOCAL_TIME ( 13, 35, 7.000000000000000000, #5 ) ;
#80 = CARTESIAN_POINT ( 'NONE',  ( -20.00000000000000000, 0.0000000000000000000, 1.100000000000000100 ) ) ;
#81 = CLOSED_SHELL ( 'NONE', ( #16, #39, #160, #37 ) ) ;
#82 = DIRECTION ( 'NONE',  ( 0.0000000000000000000, 0.0000000000000000000, 1.000000000000000000 ) ) ;
#83 = CC_DESIGN_PERSON_AND_ORGANIZATION_ASSIGNMENT ( #167, #98, ( #146 ) ) ;
#84 = ORIENTED_EDGE ( 'NONE', *, *, #151, .T. ) ;
#85 = ORIENTED_EDGE ( 'NONE', *, *, #51, .F. ) ;
#86 = VERTEX_POINT ( 'NONE', #137 ) ;
#87 = EDGE_LOOP ( 'NONE', ( #15, #85 ) ) ;
#88 = CARTESIAN_POINT ( 'NONE',  ( 0.0000000000000000000, 0.0000000000000000000, 0.0000000000000000000 ) ) ;
#89 = LINE ( 'NONE', #80, #13 ) ;
#90 = AXIS2_PLACEMENT_3D ( 'NONE', #50, #25, #55 ) ;
#91 = VERTEX_POINT ( 'NONE', #104 ) ;
#92 = DIRECTION ( 'NONE',  ( 0.0000000000000000000, 0.0000000000000000000, 1.000000000000000000 ) ) ;
#93 = ORIENTED_EDGE ( 'NONE', *, *, #138, .T. ) ;
#94 = DIRECTION ( 'NONE',  ( 1.000000000000000000, 0.0000000000000000000, 0.0000000000000000000 ) ) ;
#95 = APPROVAL_ROLE ( '' ) ;
#96 = VERTEX_POINT ( 'NONE', #3 ) ;
#97 = DIRECTION ( 'NONE',  ( 0.0000000000000000000, 0.0000000000000000000, 1.000000000000000000 ) ) ;
#98 = PERSON_AND_ORGANIZATION_ROLE ( 'design_owner' ) ;
#99 = COORDINATED_UNIVERSAL_TIME_OFFSET ( 5, 0, .BEHIND. ) ;
#100 = AXIS2_PLACEMENT_3D ( 'NONE', #130, #97, #94 ) ;
#101 = LOCAL_TIME ( 13, 35, 7.000000000000000000, #99 ) ;
#102 = FACE_OUTER_BOUND ( 'NONE', #87, .T. ) ;
#103 = DIRECTION ( 'NONE',  ( 0.0000000000000000000, 0.0000000000000000000, 1.000000000000000000 ) ) ;
#104 = CARTESIAN_POINT ( 'NONE',  ( 20.00000000000000000, 2.449293598294706500E-015, 1.100000000000000100 ) ) ;
#105 = FACE_OUTER_BOUND ( 'NONE', #112, .T. ) ;
#106 = ORIENTED_EDGE ( 'NONE', *, *, #51, .T. ) ;
#107 = ORIENTED_EDGE ( 'NONE', *, *, #151, .F. ) ;
#108 = EDGE_LOOP ( 'NONE', ( #84, #12 ) ) ;
#109 = EDGE_LOOP ( 'NONE', ( #74, #107, #93, #150 ) ) ;
#110 = DIRECTION ( 'NONE',  ( 1.000000000000000000, 0.0000000000000000000, 0.0000000000000000000 ) ) ;
#111 = APPROVAL_STATUS ( 'not_yet_approved' ) ;
#112 = EDGE_LOOP ( 'NONE', ( #78, #73, #106, #72 ) ) ;
#113 = APPLICATION_CONTEXT ( 'configuration controlled 3d designs of mechanical parts and assemblies' ) ;
#114 = CALENDAR_DATE ( 2017, 26, 4 ) ;
#115 = DATE_AND_TIME ( #114, #101 ) ;
#116 = CARTESIAN_POINT ( 'NONE',  ( 0.0000000000000000000, 0.0000000000000000000, 0.0000000000000000000 ) ) ;
#117 = APPROVAL_DATE_TIME ( #115, #33 ) ;
#118 = CC_DESIGN_DATE_AND_TIME_ASSIGNMENT ( #149, #54, ( #4 ) ) ;
#119 = PERSON_AND_ORGANIZATION ( #66, #76 ) ;
#120 = COORDINATED_UNIVERSAL_TIME_OFFSET ( 5, 0, .BEHIND. ) ;
#121 = APPLICATION_PROTOCOL_DEFINITION ( 'international standard', 'config_control_design', 1994, #152 ) ;
#122 = LOCAL_TIME ( 13, 35, 7.000000000000000000, #120 ) ;
#123 = CALENDAR_DATE ( 2017, 26, 4 ) ;
#124 = DIRECTION ( 'NONE',  ( 1.000000000000000000, 0.0000000000000000000, 0.0000000000000000000 ) ) ;
#125 = AXIS2_PLACEMENT_3D ( 'NONE', #116, #60, #157 ) ;
#126 = DATE_AND_TIME ( #123, #122 ) ;
#127 = CARTESIAN_POINT ( 'NONE',  ( 20.00000000000000000, 2.449293598294706500E-015, 1.100000000000000100 ) ) ;
#128 = PERSON_AND_ORGANIZATION ( #66, #76 ) ;
#129 = CARTESIAN_POINT ( 'NONE',  ( 0.0000000000000000000, 0.0000000000000000000, 0.0000000000000000000 ) ) ;
#130 = CARTESIAN_POINT ( 'NONE',  ( 0.0000000000000000000, 0.0000000000000000000, 1.100000000000000100 ) ) ;
#131 = APPROVAL_PERSON_ORGANIZATION ( #128, #36, #31 ) ;
#132 = PERSON_AND_ORGANIZATION_ROLE ( 'design_supplier' ) ;
#133 = DIRECTION ( 'NONE',  ( -1.000000000000000000, 0.0000000000000000000, 0.0000000000000000000 ) ) ;
#134 = COORDINATED_UNIVERSAL_TIME_OFFSET ( 5, 0, .BEHIND. ) ;
#135 = LOCAL_TIME ( 13, 35, 7.000000000000000000, #134 ) ;
#136 = EDGE_CURVE ( 'NONE', #86, #48, #62, .T. ) ;
#137 = CARTESIAN_POINT ( 'NONE',  ( -20.00000000000000000, 0.0000000000000000000, 0.0000000000000000000 ) ) ;
#138 = EDGE_CURVE ( 'NONE', #96, #86, #89, .T. ) ;
#139 = MANIFOLD_SOLID_BREP ( 'Boss-Extrude1', #81 ) ;
#140 = CALENDAR_DATE ( 2017, 26, 4 ) ;
#141 = DATE_AND_TIME ( #140, #135 ) ;
#142 = APPROVAL_DATE_TIME ( #141, #36 ) ;
#143 = PERSON_AND_ORGANIZATION ( #66, #76 ) ;
#144 = PERSON_AND_ORGANIZATION ( #66, #76 ) ;
#145 = EDGE_CURVE ( 'NONE', #91, #48, #11, .T. ) ;
#146 = PRODUCT ( 'Web Model 83359_83365', 'Web Model 83359_83365', '', ( #14 ) ) ;
#147 = APPROVAL_STATUS ( 'not_yet_approved' ) ;
#148 = CALENDAR_DATE ( 2017, 26, 4 ) ;
#149 = DATE_AND_TIME ( #148, #79 ) ;
#150 = ORIENTED_EDGE ( 'NONE', *, *, #136, .T. ) ;
#151 = EDGE_CURVE ( 'NONE', #96, #91, #23, .T. ) ;
#152 = APPLICATION_CONTEXT ( 'configuration controlled 3d designs of mechanical parts and assemblies' ) ;
#153 = PERSON_AND_ORGANIZATION ( #66, #76 ) ;
#154 = PLANE ( 'NONE',  #71 ) ;
#155 = EDGE_CURVE ( 'NONE', #91, #96, #56, .T. ) ;
#156 = AXIS2_PLACEMENT_3D ( 'NONE', #19, #69, #110 ) ;
#157 = DIRECTION ( 'NONE',  ( 1.000000000000000000, 0.0000000000000000000, 0.0000000000000000000 ) ) ;
#158 = DIRECTION ( 'NONE',  ( -0.0000000000000000000, -0.0000000000000000000, -1.000000000000000000 ) ) ;
#159 = APPROVAL_ROLE ( '' ) ;
#160 = ADVANCED_FACE ( 'NONE', ( #1 ), #154, .T. ) ;
#161 = APPROVAL_PERSON_ORGANIZATION ( #153, #61, #159 ) ;
#162 = COORDINATED_UNIVERSAL_TIME_OFFSET ( 5, 0, .BEHIND. ) ;
#163 = UNCERTAINTY_MEASURE_WITH_UNIT (LENGTH_MEASURE( 1.000000000000000100E-005 ), #68, 'distance_accuracy_value', 'NONE');
#164 = LOCAL_TIME ( 13, 35, 7.000000000000000000, #162 ) ;
#165 = CALENDAR_DATE ( 2017, 26, 4 ) ;
#166 = CYLINDRICAL_SURFACE ( 'NONE', #90, 20.00000000000000000 ) ;
#167 = PERSON_AND_ORGANIZATION ( #66, #76 ) ;
#168 = AXIS2_PLACEMENT_3D ( 'NONE', #63, #172, #133 ) ;
#169 = CARTESIAN_POINT ( 'NONE',  ( 0.0000000000000000000, 0.0000000000000000000, 1.100000000000000100 ) ) ;
#170 = APPROVAL_DATE_TIME ( #34, #61 ) ;
#171 = AXIS2_PLACEMENT_3D ( 'NONE', #88, #173, #57 ) ;
#172 = DIRECTION ( 'NONE',  ( -0.0000000000000000000, -0.0000000000000000000, -1.000000000000000000 ) ) ;
#173 = DIRECTION ( 'NONE',  ( 0.0000000000000000000, 0.0000000000000000000, 1.000000000000000000 ) ) ;
#174 = FACE_OUTER_BOUND ( 'NONE', #109, .T. ) ;
#175 = AXIS2_PLACEMENT_3D ( 'NONE', #129, #103, #124 ) ;
ENDSEC;
END-ISO-10303-21;
