ISO-10303-21;
HEADER;
FILE_DESCRIPTION (( 'STEP AP203' ),
    '1' );
FILE_NAME ('4279-E0W.STEP',
    '2015-05-29T14:20:54',
    ( 'admin' ),
    ( '' ),
    'SwSTEP 2.0',
    'SolidWorks 2014',
    '' );
FILE_SCHEMA (( 'CONFIG_CONTROL_DESIGN' ));
ENDSEC;

DATA;
#1 = DIRECTION ( 'NONE',  ( -0.0000000000000000000, 1.000000000000000000, 1.224646799147353200E-016 ) ) ;
#2 = FACE_OUTER_BOUND ( 'NONE', #16, .T. ) ;
#3 = SECURITY_CLASSIFICATION_LEVEL ( 'unclassified' ) ;
#4 = LINE ( 'NONE', #205, #274 ) ;
#5 = CC_DESIGN_PERSON_AND_ORGANIZATION_ASSIGNMENT ( #61, #60, ( #146 ) ) ;
#6 = LINE ( 'NONE', #238, #299 ) ;
#7 = CALENDAR_DATE ( 2015, 29, 5 ) ;
#8 = VERTEX_POINT ( 'NONE', #202 ) ;
#9 = VERTEX_POINT ( 'NONE', #109 ) ;
#10 = DIRECTION ( 'NONE',  ( 0.0000000000000000000, 0.0000000000000000000, -1.000000000000000000 ) ) ;
#11 = AXIS2_PLACEMENT_3D ( 'NONE', #23, #26, #10 ) ;
#12 = ORIENTED_EDGE ( 'NONE', *, *, #90, .F. ) ;
#13 = ORIENTED_EDGE ( 'NONE', *, *, #261, .F. ) ;
#14 = DIRECTION ( 'NONE',  ( -1.000000000000000000, -0.0000000000000000000, -0.0000000000000000000 ) ) ;
#15 = COORDINATED_UNIVERSAL_TIME_OFFSET ( 5, 0, .BEHIND. ) ;
#16 = EDGE_LOOP ( 'NONE', ( #222, #264, #32 ) ) ;
#17 = VERTEX_POINT ( 'NONE', #45 ) ;
#18 = APPROVAL_ROLE ( '' ) ;
#19 = CC_DESIGN_APPROVAL ( #221, ( #146 ) ) ;
#20 = CARTESIAN_POINT ( 'NONE',  ( -3.549999999999999800, 0.0000000000000000000, 0.0000000000000000000 ) ) ;
#21 = DIRECTION ( 'NONE',  ( 0.0000000000000000000, 0.0000000000000000000, 1.000000000000000000 ) ) ;
#22 = DIRECTION ( 'NONE',  ( 0.0000000000000000000, 0.0000000000000000000, -1.000000000000000000 ) ) ;
#23 = CARTESIAN_POINT ( 'NONE',  ( -3.299999999999996300, 0.0000000000000000000, 0.0000000000000000000 ) ) ;
#24 = DIRECTION ( 'NONE',  ( 0.0000000000000000000, 0.0000000000000000000, 1.000000000000000000 ) ) ;
#25 = AXIS2_PLACEMENT_3D ( 'NONE', #99, #199, #160 ) ;
#26 = DIRECTION ( 'NONE',  ( 1.000000000000000000, 0.0000000000000000000, 0.0000000000000000000 ) ) ;
#27 = CARTESIAN_POINT ( 'NONE',  ( -3.549999999999999800, 0.0000000000000000000, 0.0000000000000000000 ) ) ;
#28 = CONICAL_SURFACE ( 'NONE', #294, 12.69999999999999900, 0.4039414075678053300 ) ;
#29 = AXIS2_PLACEMENT_3D ( 'NONE', #73, #33, #292 ) ;
#30 = DIRECTION ( 'NONE',  ( -1.000000000000000000, -0.0000000000000000000, -0.0000000000000000000 ) ) ;
#31 = APPROVAL ( #176, 'UNSPECIFIED' ) ;
#32 = ORIENTED_EDGE ( 'NONE', *, *, #56, .T. ) ;
#33 = DIRECTION ( 'NONE',  ( -1.000000000000000000, -0.0000000000000000000, -0.0000000000000000000 ) ) ;
#34 = CC_DESIGN_PERSON_AND_ORGANIZATION_ASSIGNMENT ( #139, #151, ( #279 ) ) ;
#35 = CLOSED_SHELL ( 'NONE', ( #265, #38, #46, #48, #201, #250, #286, #270, #252 ) ) ;
#36 = PERSON_AND_ORGANIZATION_ROLE ( 'creator' ) ;
#37 = AXIS2_PLACEMENT_3D ( 'NONE', #181, #258, #291 ) ;
#38 = ADVANCED_FACE ( 'NONE', ( #85 ), #28, .T. ) ;
#39 = ORIENTED_EDGE ( 'NONE', *, *, #285, .T. ) ;
#40 = VERTEX_POINT ( 'NONE', #152 ) ;
#41 = AXIS2_PLACEMENT_3D ( 'NONE', #282, #1, #68 ) ;
#42 = AXIS2_PLACEMENT_3D ( 'NONE', #84, #143, #208 ) ;
#43 = PERSON_AND_ORGANIZATION ( #94, #142 ) ;
#44 = CARTESIAN_POINT ( 'NONE',  ( -3.549999999999999800, 1.539993349927796300E-015, 12.44999999999999200 ) ) ;
#45 = CARTESIAN_POINT ( 'NONE',  ( -1.799999999999980500, 1.555301434917138400E-015, -12.69999999999999900 ) ) ;
#46 = ADVANCED_FACE ( 'NONE', ( #2 ), #145, .T. ) ;
#47 = AXIS2_PLACEMENT_3D ( 'NONE', #20, #178, #106 ) ;
#48 = ADVANCED_FACE ( 'NONE', ( #223 ), #300, .T. ) ;
#49 = CARTESIAN_POINT ( 'NONE',  ( -3.549999999999999800, 1.524685264938453900E-015, 12.44999999999999200 ) ) ;
#50 = CONICAL_SURFACE ( 'NONE', #206, 12.69999999999999900, 0.4039414075678053300 ) ;
#51 = LINE ( 'NONE', #49, #83 ) ;
#52 = VERTEX_POINT ( 'NONE', #244 ) ;
#53 = ORIENTED_EDGE ( 'NONE', *, *, #233, .F. ) ;
#54 = AXIS2_PLACEMENT_3D ( 'NONE', #164, #197, #128 ) ;
#55 = PERSON_AND_ORGANIZATION ( #94, #142 ) ;
#56 = EDGE_CURVE ( 'NONE', #40, #9, #58, .T. ) ;
#57 = APPROVAL_DATE_TIME ( #82, #31 ) ;
#58 = CIRCLE ( 'NONE', #138, 12.52094007084230600 ) ;
#59 = VERTEX_POINT ( 'NONE', #44 ) ;
#60 = PERSON_AND_ORGANIZATION_ROLE ( 'creator' ) ;
#61 = PERSON_AND_ORGANIZATION ( #94, #142 ) ;
#62 = CIRCLE ( 'NONE', #301, 12.69999999999999900 ) ;
#63 = LINE ( 'NONE', #72, #192 ) ;
#64 = ORIENTED_EDGE ( 'NONE', *, *, #273, .T. ) ;
#65 = PLANE ( 'NONE',  #131 ) ;
#66 = MECHANICAL_CONTEXT ( 'NONE', #89, 'mechanical' ) ;
#67 = LINE ( 'NONE', #209, #189 ) ;
#68 = DIRECTION ( 'NONE',  ( 0.0000000000000000000, -1.224646799147353200E-016, 1.000000000000000000 ) ) ;
#69 = LOCAL_TIME ( 10, 20, 54.00000000000000000, #220 ) ;
#70 = CALENDAR_DATE ( 2015, 29, 5 ) ;
#71 = CC_DESIGN_PERSON_AND_ORGANIZATION_ASSIGNMENT ( #43, #188, ( #237 ) ) ;
#72 = CARTESIAN_POINT ( 'NONE',  ( -3.549999999999999800, 0.0000000000000000000, -12.44999999999999200 ) ) ;
#73 = CARTESIAN_POINT ( 'NONE',  ( -14.84999391990667100, 0.0000000000000000000, 0.0000000000000000000 ) ) ;
#74 = DIRECTION ( 'NONE',  ( -1.000000000000000000, -0.0000000000000000000, -0.0000000000000000000 ) ) ;
#75 = APPROVAL_PERSON_ORGANIZATION ( #168, #31, #95 ) ;
#76 = VERTEX_POINT ( 'NONE', #124 ) ;
#77 = DIRECTION ( 'NONE',  ( 1.000000000000000000, 0.0000000000000000000, 0.0000000000000000000 ) ) ;
#78 = LOCAL_TIME ( 10, 20, 54.00000000000000000, #165 ) ;
#79 = ORIENTED_EDGE ( 'NONE', *, *, #253, .F. ) ;
#80 = VECTOR ( 'NONE', #185, 1000.000000000000000 ) ;
#81 = APPROVAL_STATUS ( 'not_yet_approved' ) ;
#82 = DATE_AND_TIME ( #122, #78 ) ;
#83 = VECTOR ( 'NONE', #254, 1000.000000000000000 ) ;
#84 = CARTESIAN_POINT ( 'NONE',  ( -1.381094379253478700, 0.0000000000000000000, 0.0000000000000000000 ) ) ;
#85 = FACE_OUTER_BOUND ( 'NONE', #289, .T. ) ;
#86 = ORIENTED_EDGE ( 'NONE', *, *, #281, .T. ) ;
#87 = DIRECTION ( 'NONE',  ( 0.0000000000000000000, 0.0000000000000000000, 1.000000000000000000 ) ) ;
#88 = DIRECTION ( 'NONE',  ( 0.0000000000000000000, 0.0000000000000000000, 1.000000000000000000 ) ) ;
#89 = APPLICATION_CONTEXT ( 'configuration controlled 3d designs of mechanical parts and assemblies' ) ;
#90 = EDGE_CURVE ( 'NONE', #9, #76, #6, .T. ) ;
#91 = ORIENTED_EDGE ( 'NONE', *, *, #56, .F. ) ;
#92 = ORIENTED_EDGE ( 'NONE', *, *, #253, .T. ) ;
#93 = AXIS2_PLACEMENT_3D ( 'NONE', #153, #147, #269 ) ;
#94 = PERSON ( 'UNSPECIFIED', 'UNSPECIFIED', 'UNSPECIFIED', ('UNSPECIFIED'), ('UNSPECIFIED'), ('UNSPECIFIED') ) ;
#95 = APPROVAL_ROLE ( '' ) ;
#96 = EDGE_CURVE ( 'NONE', #17, #161, #4, .T. ) ;
#97 = SHAPE_DEFINITION_REPRESENTATION ( #278, #177 ) ;
#98 = EDGE_CURVE ( 'NONE', #17, #76, #290, .T. ) ;
#99 = CARTESIAN_POINT ( 'NONE',  ( 0.0000000000000000000, 0.0000000000000000000, 0.0000000000000000000 ) ) ;
#100 = DATE_AND_TIME ( #108, #203 ) ;
#101 = DIRECTION ( 'NONE',  ( -1.000000000000000000, -0.0000000000000000000, -0.0000000000000000000 ) ) ;
#102 = LOCAL_TIME ( 10, 20, 54.00000000000000000, #103 ) ;
#103 = COORDINATED_UNIVERSAL_TIME_OFFSET ( 5, 0, .BEHIND. ) ;
#104 = VERTEX_POINT ( 'NONE', #228 ) ;
#105 = FACE_OUTER_BOUND ( 'NONE', #119, .T. ) ;
#106 = DIRECTION ( 'NONE',  ( 0.0000000000000000000, 0.0000000000000000000, -1.000000000000000000 ) ) ;
#107 = UNCERTAINTY_MEASURE_WITH_UNIT (LENGTH_MEASURE( 1.000000000000000100E-005 ), #224, 'distance_accuracy_value', 'NONE');
#108 = CALENDAR_DATE ( 2015, 29, 5 ) ;
#109 = CARTESIAN_POINT ( 'NONE',  ( -1.381094379253478700, 0.0000000000000000000, 12.52094007084230600 ) ) ;
#110 = COORDINATED_UNIVERSAL_TIME_OFFSET ( 5, 0, .BEHIND. ) ;
#111 = APPROVAL_PERSON_ORGANIZATION ( #212, #241, #242 ) ;
#112 = DIRECTION ( 'NONE',  ( 0.0000000000000000000, -1.000000000000000000, 0.0000000000000000000 ) ) ;
#113 = ORIENTED_EDGE ( 'NONE', *, *, #257, .F. ) ;
#114 = AXIS2_PLACEMENT_3D ( 'NONE', #149, #293, #175 ) ;
#115 = DIRECTION ( 'NONE',  ( 0.0000000000000000000, 0.0000000000000000000, 1.000000000000000000 ) ) ;
#116 = DIRECTION ( 'NONE',  ( 0.0000000000000000000, 0.0000000000000000000, 1.000000000000000000 ) ) ;
#117 = APPROVAL_PERSON_ORGANIZATION ( #163, #221, #18 ) ;
#118 = CIRCLE ( 'NONE', #180, 18.39999999999999900 ) ;
#119 = EDGE_LOOP ( 'NONE', ( #183, #86, #296 ) ) ;
#120 =( GEOMETRIC_REPRESENTATION_CONTEXT ( 3 ) GLOBAL_UNCERTAINTY_ASSIGNED_CONTEXT ( ( #107 ) ) GLOBAL_UNIT_ASSIGNED_CONTEXT ( ( #224, #218, #226 ) ) REPRESENTATION_CONTEXT ( 'NONE', 'WORKASPACE' ) );
#121 = APPLICATION_CONTEXT ( 'configuration controlled 3d designs of mechanical parts and assemblies' ) ;
#122 = CALENDAR_DATE ( 2015, 29, 5 ) ;
#123 = PERSON_AND_ORGANIZATION ( #94, #142 ) ;
#124 = CARTESIAN_POINT ( 'NONE',  ( -1.799999999999980500, 0.0000000000000000000, 12.69999999999999900 ) ) ;
#125 = ORIENTED_EDGE ( 'NONE', *, *, #232, .F. ) ;
#126 = CIRCLE ( 'NONE', #54, 12.44999999999999200 ) ;
#127 = CARTESIAN_POINT ( 'NONE',  ( -14.84999391990667100, 0.0000000000000000000, 0.0000000000000000000 ) ) ;
#128 = DIRECTION ( 'NONE',  ( 0.0000000000000000000, 0.0000000000000000000, -1.000000000000000000 ) ) ;
#129 = CIRCLE ( 'NONE', #196, 12.69999999999999900 ) ;
#130 = ORIENTED_EDGE ( 'NONE', *, *, #257, .T. ) ;
#131 = AXIS2_PLACEMENT_3D ( 'NONE', #207, #243, #22 ) ;
#132 = CARTESIAN_POINT ( 'NONE',  ( -3.299999999999996300, 1.555301434917138400E-015, -12.69999999999999900 ) ) ;
#133 = ORIENTED_EDGE ( 'NONE', *, *, #288, .F. ) ;
#134 = DIRECTION ( 'NONE',  ( -0.9195189873844751300, 4.813420175135933500E-017, -0.3930455849382225000 ) ) ;
#135 = DIRECTION ( 'NONE',  ( 0.0000000000000000000, 0.0000000000000000000, -1.000000000000000000 ) ) ;
#136 = DIRECTION ( 'NONE',  ( -0.9195189873844751300, 0.0000000000000000000, 0.3930455849382225000 ) ) ;
#137 = APPROVAL_DATE_TIME ( #150, #241 ) ;
#138 = AXIS2_PLACEMENT_3D ( 'NONE', #262, #266, #115 ) ;
#139 = PERSON_AND_ORGANIZATION ( #94, #142 ) ;
#140 = ORIENTED_EDGE ( 'NONE', *, *, #96, .F. ) ;
#141 = PRODUCT_RELATED_PRODUCT_CATEGORY ( 'detail', '', ( #279 ) ) ;
#142 = ORGANIZATION ( 'UNSPECIFIED', 'UNSPECIFIED', '' ) ;
#143 = DIRECTION ( 'NONE',  ( 1.000000000000000000, 0.0000000000000000000, 0.0000000000000000000 ) ) ;
#144 = ORIENTED_EDGE ( 'NONE', *, *, #232, .T. ) ;
#145 = TOROIDAL_SURFACE ( 'NONE', #298, -0.01495818830897846500, 18.39999999999999900 ) ;
#146 = PRODUCT_DEFINITION_FORMATION_WITH_SPECIFIED_SOURCE ( 'ANY', '', #279, .NOT_KNOWN. ) ;
#147 = DIRECTION ( 'NONE',  ( 1.000000000000000000, 0.0000000000000000000, 0.0000000000000000000 ) ) ;
#148 = APPROVAL_STATUS ( 'not_yet_approved' ) ;
#149 = CARTESIAN_POINT ( 'NONE',  ( -3.549999999999999800, 0.0000000000000000000, 0.0000000000000000000 ) ) ;
#150 = DATE_AND_TIME ( #7, #210 ) ;
#151 = PERSON_AND_ORGANIZATION_ROLE ( 'design_owner' ) ;
#152 = CARTESIAN_POINT ( 'NONE',  ( -1.381094379253478700, 1.533372918007286200E-015, -12.52094007084230600 ) ) ;
#153 = CARTESIAN_POINT ( 'NONE',  ( -3.549999999999999800, 0.0000000000000000000, 0.0000000000000000000 ) ) ;
#154 = TOROIDAL_SURFACE ( 'NONE', #29, -0.01495818830897846500, 18.39999999999999900 ) ;
#155 = CC_DESIGN_APPROVAL ( #241, ( #184 ) ) ;
#156 = PERSON_AND_ORGANIZATION_ROLE ( 'design_supplier' ) ;
#157 = CYLINDRICAL_SURFACE ( 'NONE', #114, 12.69999999999999900 ) ;
#158 = FACE_OUTER_BOUND ( 'NONE', #240, .T. ) ;
#159 = DIRECTION ( 'NONE',  ( -1.000000000000000000, -0.0000000000000000000, -0.0000000000000000000 ) ) ;
#160 = DIRECTION ( 'NONE',  ( 1.000000000000000000, 0.0000000000000000000, 0.0000000000000000000 ) ) ;
#161 = VERTEX_POINT ( 'NONE', #132 ) ;
#162 = AXIS2_PLACEMENT_3D ( 'NONE', #27, #101, #88 ) ;
#163 = PERSON_AND_ORGANIZATION ( #94, #142 ) ;
#164 = CARTESIAN_POINT ( 'NONE',  ( -3.549999999999999800, 0.0000000000000000000, 0.0000000000000000000 ) ) ;
#165 = COORDINATED_UNIVERSAL_TIME_OFFSET ( 5, 0, .BEHIND. ) ;
#166 = CC_DESIGN_DATE_AND_TIME_ASSIGNMENT ( #167, #170, ( #237 ) ) ;
#167 = DATE_AND_TIME ( #70, #69 ) ;
#168 = PERSON_AND_ORGANIZATION ( #94, #142 ) ;
#169 = ORIENTED_EDGE ( 'NONE', *, *, #288, .T. ) ;
#170 = DATE_TIME_ROLE ( 'classification_date' ) ;
#171 = ORIENTED_EDGE ( 'NONE', *, *, #297, .T. ) ;
#172 = CARTESIAN_POINT ( 'NONE',  ( -14.84999391990667100, 0.0000000000000000000, -0.01495818830897846500 ) ) ;
#173 = DATE_AND_TIME ( #198, #102 ) ;
#174 = ORIENTED_EDGE ( 'NONE', *, *, #229, .F. ) ;
#175 = DIRECTION ( 'NONE',  ( 0.0000000000000000000, 0.0000000000000000000, 1.000000000000000000 ) ) ;
#176 = APPROVAL_STATUS ( 'not_yet_approved' ) ;
#177 = ADVANCED_BREP_SHAPE_REPRESENTATION ( '4279-E0W', ( #249, #25 ), #120 ) ;
#178 = DIRECTION ( 'NONE',  ( 1.000000000000000000, 0.0000000000000000000, 0.0000000000000000000 ) ) ;
#179 = CARTESIAN_POINT ( 'NONE',  ( -3.549999999999999800, 0.0000000000000000000, 12.69999999999999900 ) ) ;
#180 = AXIS2_PLACEMENT_3D ( 'NONE', #172, #112, #280 ) ;
#181 = CARTESIAN_POINT ( 'NONE',  ( -3.549999999999999800, 0.0000000000000000000, 0.0000000000000000000 ) ) ;
#182 = DESIGN_CONTEXT ( 'detailed design', #121, 'design' ) ;
#183 = ORIENTED_EDGE ( 'NONE', *, *, #277, .F. ) ;
#184 = PRODUCT_DEFINITION ( 'UNKNOWN', '', #146, #182 ) ;
#185 = DIRECTION ( 'NONE',  ( -1.000000000000000000, -0.0000000000000000000, -0.0000000000000000000 ) ) ;
#186 = CC_DESIGN_PERSON_AND_ORGANIZATION_ASSIGNMENT ( #123, #36, ( #184 ) ) ;
#187 = ORIENTED_EDGE ( 'NONE', *, *, #297, .F. ) ;
#188 = PERSON_AND_ORGANIZATION_ROLE ( 'classification_officer' ) ;
#189 = VECTOR ( 'NONE', #134, 1000.000000000000000 ) ;
#190 = ORIENTED_EDGE ( 'NONE', *, *, #261, .T. ) ;
#191 = DATE_TIME_ROLE ( 'creation_date' ) ;
#192 = VECTOR ( 'NONE', #217, 1000.000000000000000 ) ;
#193 = EDGE_LOOP ( 'NONE', ( #204, #79, #169, #125 ) ) ;
#194 = ORIENTED_EDGE ( 'NONE', *, *, #90, .T. ) ;
#195 = APPLICATION_PROTOCOL_DEFINITION ( 'international standard', 'config_control_design', 1994, #89 ) ;
#196 = AXIS2_PLACEMENT_3D ( 'NONE', #214, #77, #135 ) ;
#197 = DIRECTION ( 'NONE',  ( -1.000000000000000000, -0.0000000000000000000, -0.0000000000000000000 ) ) ;
#198 = CALENDAR_DATE ( 2015, 29, 5 ) ;
#199 = DIRECTION ( 'NONE',  ( 0.0000000000000000000, 0.0000000000000000000, 1.000000000000000000 ) ) ;
#200 = DIRECTION ( 'NONE',  ( -1.000000000000000000, -0.0000000000000000000, -0.0000000000000000000 ) ) ;
#201 = ADVANCED_FACE ( 'NONE', ( #267 ), #65, .F. ) ;
#202 = CARTESIAN_POINT ( 'NONE',  ( 3.549999999999999800, 0.0000000000000000000, 0.0000000000000000000 ) ) ;
#203 = LOCAL_TIME ( 10, 20, 54.00000000000000000, #15 ) ;
#204 = ORIENTED_EDGE ( 'NONE', *, *, #285, .F. ) ;
#205 = CARTESIAN_POINT ( 'NONE',  ( -3.549999999999999800, 1.555301434917138400E-015, -12.69999999999999900 ) ) ;
#206 = AXIS2_PLACEMENT_3D ( 'NONE', #234, #159, #276 ) ;
#207 = CARTESIAN_POINT ( 'NONE',  ( -3.549999999999999800, 0.0000000000000000000, 0.0000000000000000000 ) ) ;
#208 = DIRECTION ( 'NONE',  ( 0.0000000000000000000, 0.0000000000000000000, 1.000000000000000000 ) ) ;
#209 = CARTESIAN_POINT ( 'NONE',  ( -1.799999999999980500, 1.555301434917138400E-015, -12.69999999999999900 ) ) ;
#210 = LOCAL_TIME ( 10, 20, 54.00000000000000000, #110 ) ;
#211 = EDGE_LOOP ( 'NONE', ( #53, #39, #13, #133 ) ) ;
#212 = PERSON_AND_ORGANIZATION ( #94, #142 ) ;
#213 = ORIENTED_EDGE ( 'NONE', *, *, #98, .F. ) ;
#214 = CARTESIAN_POINT ( 'NONE',  ( -3.299999999999996300, 0.0000000000000000000, 0.0000000000000000000 ) ) ;
#215 = AXIS2_PLACEMENT_3D ( 'NONE', #235, #14, #21 ) ;
#216 = CC_DESIGN_PERSON_AND_ORGANIZATION_ASSIGNMENT ( #55, #156, ( #146 ) ) ;
#217 = DIRECTION ( 'NONE',  ( 0.7071067811865426900, 0.0000000000000000000, -0.7071067811865524600 ) ) ;
#218 =( NAMED_UNIT ( * ) PLANE_ANGLE_UNIT ( ) SI_UNIT ( $, .RADIAN. ) );
#219 = LINE ( 'NONE', #179, #80 ) ;
#220 = COORDINATED_UNIVERSAL_TIME_OFFSET ( 5, 0, .BEHIND. ) ;
#221 = APPROVAL ( #81, 'UNSPECIFIED' ) ;
#222 = ORIENTED_EDGE ( 'NONE', *, *, #281, .F. ) ;
#223 = FACE_OUTER_BOUND ( 'NONE', #239, .T. ) ;
#224 =( LENGTH_UNIT ( ) NAMED_UNIT ( * ) SI_UNIT ( .MILLI., .METRE. ) );
#225 = CC_DESIGN_DATE_AND_TIME_ASSIGNMENT ( #100, #191, ( #184 ) ) ;
#226 =( NAMED_UNIT ( * ) SI_UNIT ( $, .STERADIAN. ) SOLID_ANGLE_UNIT ( ) );
#227 = APPROVAL_DATE_TIME ( #173, #221 ) ;
#228 = CARTESIAN_POINT ( 'NONE',  ( -3.549999999999999800, 0.0000000000000000000, -12.44999999999999200 ) ) ;
#229 = EDGE_CURVE ( 'NONE', #9, #40, #268, .T. ) ;
#230 = CARTESIAN_POINT ( 'NONE',  ( -1.799999999999980500, 0.0000000000000000000, 0.0000000000000000000 ) ) ;
#231 = FACE_OUTER_BOUND ( 'NONE', #211, .T. ) ;
#232 = EDGE_CURVE ( 'NONE', #52, #161, #129, .T. ) ;
#233 = EDGE_CURVE ( 'NONE', #59, #104, #126, .T. ) ;
#234 = CARTESIAN_POINT ( 'NONE',  ( -1.799999999999980500, 0.0000000000000000000, 0.0000000000000000000 ) ) ;
#235 = CARTESIAN_POINT ( 'NONE',  ( -1.799999999999980500, 0.0000000000000000000, 0.0000000000000000000 ) ) ;
#236 = CONICAL_SURFACE ( 'NONE', #47, 12.44999999999999200, 0.7853981633974552700 ) ;
#237 = SECURITY_CLASSIFICATION ( '', '', #3 ) ;
#238 = CARTESIAN_POINT ( 'NONE',  ( -1.799999999999980500, 0.0000000000000000000, 12.69999999999999900 ) ) ;
#239 = EDGE_LOOP ( 'NONE', ( #64, #260, #190, #113 ) ) ;
#240 = EDGE_LOOP ( 'NONE', ( #187, #174, #194, #213 ) ) ;
#241 = APPROVAL ( #148, 'UNSPECIFIED' ) ;
#242 = APPROVAL_ROLE ( '' ) ;
#243 = DIRECTION ( 'NONE',  ( 1.000000000000000000, 0.0000000000000000000, 0.0000000000000000000 ) ) ;
#244 = CARTESIAN_POINT ( 'NONE',  ( -3.299999999999996300, 0.0000000000000000000, 12.69999999999999900 ) ) ;
#245 = APPLICATION_PROTOCOL_DEFINITION ( 'international standard', 'config_control_design', 1994, #121 ) ;
#246 = CC_DESIGN_SECURITY_CLASSIFICATION ( #237, ( #146 ) ) ;
#247 = CIRCLE ( 'NONE', #41, 18.39999999999999900 ) ;
#248 = ORIENTED_EDGE ( 'NONE', *, *, #98, .T. ) ;
#249 = MANIFOLD_SOLID_BREP ( '4279-001-1-solid1', #35 ) ;
#250 = ADVANCED_FACE ( 'NONE', ( #259 ), #157, .T. ) ;
#251 = CIRCLE ( 'NONE', #37, 12.44999999999999200 ) ;
#252 = ADVANCED_FACE ( 'NONE', ( #295 ), #287, .T. ) ;
#253 = EDGE_CURVE ( 'NONE', #104, #59, #251, .T. ) ;
#254 = DIRECTION ( 'NONE',  ( 0.7071067811865426900, 8.659560562354994500E-017, 0.7071067811865524600 ) ) ;
#255 = ORIENTED_EDGE ( 'NONE', *, *, #273, .F. ) ;
#256 = ORIENTED_EDGE ( 'NONE', *, *, #233, .T. ) ;
#257 = EDGE_CURVE ( 'NONE', #76, #52, #219, .T. ) ;
#258 = DIRECTION ( 'NONE',  ( -1.000000000000000000, -0.0000000000000000000, -0.0000000000000000000 ) ) ;
#259 = FACE_OUTER_BOUND ( 'NONE', #283, .T. ) ;
#260 = ORIENTED_EDGE ( 'NONE', *, *, #96, .T. ) ;
#261 = EDGE_CURVE ( 'NONE', #161, #52, #263, .T. ) ;
#262 = CARTESIAN_POINT ( 'NONE',  ( -1.381094379253478700, 0.0000000000000000000, 0.0000000000000000000 ) ) ;
#263 = CIRCLE ( 'NONE', #11, 12.69999999999999900 ) ;
#264 = ORIENTED_EDGE ( 'NONE', *, *, #277, .T. ) ;
#265 = ADVANCED_FACE ( 'NONE', ( #231 ), #236, .T. ) ;
#266 = DIRECTION ( 'NONE',  ( 1.000000000000000000, 0.0000000000000000000, 0.0000000000000000000 ) ) ;
#267 = FACE_OUTER_BOUND ( 'NONE', #284, .T. ) ;
#268 = CIRCLE ( 'NONE', #42, 12.52094007084230600 ) ;
#269 = DIRECTION ( 'NONE',  ( 0.0000000000000000000, 0.0000000000000000000, -1.000000000000000000 ) ) ;
#270 = ADVANCED_FACE ( 'NONE', ( #158 ), #50, .T. ) ;
#271 = DIRECTION ( 'NONE',  ( -1.000000000000000000, -0.0000000000000000000, -0.0000000000000000000 ) ) ;
#272 = CC_DESIGN_APPROVAL ( #31, ( #237 ) ) ;
#273 = EDGE_CURVE ( 'NONE', #76, #17, #62, .T. ) ;
#274 = VECTOR ( 'NONE', #74, 1000.000000000000000 ) ;
#275 = CARTESIAN_POINT ( 'NONE',  ( -1.799999999999980500, 0.0000000000000000000, 0.0000000000000000000 ) ) ;
#276 = DIRECTION ( 'NONE',  ( 0.0000000000000000000, 0.0000000000000000000, 1.000000000000000000 ) ) ;
#277 = EDGE_CURVE ( 'NONE', #8, #40, #247, .T. ) ;
#278 = PRODUCT_DEFINITION_SHAPE ( 'NONE', 'NONE',  #184 ) ;
#279 = PRODUCT ( '4279-E0W', '4279-E0W', '', ( #66 ) ) ;
#280 = DIRECTION ( 'NONE',  ( 0.0000000000000000000, 0.0000000000000000000, -1.000000000000000000 ) ) ;
#281 = EDGE_CURVE ( 'NONE', #8, #9, #118, .T. ) ;
#282 = CARTESIAN_POINT ( 'NONE',  ( -14.84999391990667100, -1.831849743363383800E-018, 0.01495818830897846500 ) ) ;
#283 = EDGE_LOOP ( 'NONE', ( #140, #248, #130, #144 ) ) ;
#284 = EDGE_LOOP ( 'NONE', ( #92, #256 ) ) ;
#285 = EDGE_CURVE ( 'NONE', #59, #52, #51, .T. ) ;
#286 = ADVANCED_FACE ( 'NONE', ( #105 ), #154, .T. ) ;
#287 = CONICAL_SURFACE ( 'NONE', #93, 12.44999999999999200, 0.7853981633974552700 ) ;
#288 = EDGE_CURVE ( 'NONE', #104, #161, #63, .T. ) ;
#289 = EDGE_LOOP ( 'NONE', ( #91, #171, #255, #12 ) ) ;
#290 = CIRCLE ( 'NONE', #215, 12.69999999999999900 ) ;
#291 = DIRECTION ( 'NONE',  ( 0.0000000000000000000, 0.0000000000000000000, -1.000000000000000000 ) ) ;
#292 = DIRECTION ( 'NONE',  ( 0.0000000000000000000, 0.0000000000000000000, 1.000000000000000000 ) ) ;
#293 = DIRECTION ( 'NONE',  ( -1.000000000000000000, -0.0000000000000000000, -0.0000000000000000000 ) ) ;
#294 = AXIS2_PLACEMENT_3D ( 'NONE', #230, #200, #87 ) ;
#295 = FACE_OUTER_BOUND ( 'NONE', #193, .T. ) ;
#296 = ORIENTED_EDGE ( 'NONE', *, *, #229, .T. ) ;
#297 = EDGE_CURVE ( 'NONE', #40, #17, #67, .T. ) ;
#298 = AXIS2_PLACEMENT_3D ( 'NONE', #127, #271, #116 ) ;
#299 = VECTOR ( 'NONE', #136, 1000.000000000000000 ) ;
#300 = CYLINDRICAL_SURFACE ( 'NONE', #162, 12.69999999999999900 ) ;
#301 = AXIS2_PLACEMENT_3D ( 'NONE', #275, #30, #24 ) ;
ENDSEC;
END-ISO-10303-21;
