ISO-10303-21;
HEADER;
FILE_DESCRIPTION (( 'STEP AP203' ),
    '1' );
FILE_NAME ('Web Model 47023.STEP',
    '2017-01-31T15:20:09',
    ( '' ),
    ( '' ),
    'SwSTEP 2.0',
    'SolidWorks 2016',
    '' );
FILE_SCHEMA (( 'CONFIG_CONTROL_DESIGN' ));
ENDSEC;

DATA;
#1 = VECTOR ( 'NONE', #101, 1000.000000000000000 ) ;
#2 = ORIENTED_EDGE ( 'NONE', *, *, #19, .F. ) ;
#3 = EDGE_CURVE ( 'NONE', #129, #210, #110, .T. ) ;
#4 = CARTESIAN_POINT ( 'NONE',  ( 38.00000000000000000, 25.00000000000000000, 3.000000000000000000 ) ) ;
#5 = LOCAL_TIME ( 10, 20, 9.000000000000000000, #112 ) ;
#6 = CARTESIAN_POINT ( 'NONE',  ( 0.0000000000000000000, 25.00000000000000000, 3.000000000000000000 ) ) ;
#7 = APPLICATION_CONTEXT ( 'configuration controlled 3d designs of mechanical parts and assemblies' ) ;
#8 = CARTESIAN_POINT ( 'NONE',  ( 0.0000000000000000000, 25.00000000000000000, 0.0000000000000000000 ) ) ;
#9 = EDGE_LOOP ( 'NONE', ( #171, #220, #79, #144 ) ) ;
#10 = CC_DESIGN_PERSON_AND_ORGANIZATION_ASSIGNMENT ( #23, #183, ( #219 ) ) ;
#11 = LOCAL_TIME ( 10, 20, 9.000000000000000000, #103 ) ;
#12 = CARTESIAN_POINT ( 'NONE',  ( 38.00000000000000000, 25.00000000000000000, 3.000000000000000000 ) ) ;
#13 = VECTOR ( 'NONE', #138, 1000.000000000000000 ) ;
#14 = APPROVAL_PERSON_ORGANIZATION ( #70, #77, #213 ) ;
#15 = ORIENTED_EDGE ( 'NONE', *, *, #192, .T. ) ;
#16 = CALENDAR_DATE ( 2017, 31, 1 ) ;
#17 = LINE ( 'NONE', #45, #56 ) ;
#18 = ORIENTED_EDGE ( 'NONE', *, *, #3, .T. ) ;
#19 = EDGE_CURVE ( 'NONE', #93, #176, #157, .T. ) ;
#20 = CC_DESIGN_DATE_AND_TIME_ASSIGNMENT ( #71, #82, ( #219 ) ) ;
#21 = CARTESIAN_POINT ( 'NONE',  ( 0.0000000000000000000, 0.0000000000000000000, 3.000000000000000000 ) ) ;
#22 = PERSON_AND_ORGANIZATION ( #34, #152 ) ;
#23 = PERSON_AND_ORGANIZATION ( #34, #152 ) ;
#24 = ADVANCED_FACE ( 'NONE', ( #43 ), #149, .F. ) ;
#25 = DIRECTION ( 'NONE',  ( 1.000000000000000000, 0.0000000000000000000, 0.0000000000000000000 ) ) ;
#26 = CARTESIAN_POINT ( 'NONE',  ( 38.00000000000000000, 0.0000000000000000000, 3.000000000000000000 ) ) ;
#27 = CARTESIAN_POINT ( 'NONE',  ( 0.0000000000000000000, 0.0000000000000000000, 3.000000000000000000 ) ) ;
#28 = ORIENTED_EDGE ( 'NONE', *, *, #19, .T. ) ;
#29 = UNCERTAINTY_MEASURE_WITH_UNIT (LENGTH_MEASURE( 1.000000000000000100E-005 ), #182, 'distance_accuracy_value', 'NONE');
#30 = LINE ( 'NONE', #105, #50 ) ;
#31 = DIRECTION ( 'NONE',  ( -0.0000000000000000000, -0.0000000000000000000, -1.000000000000000000 ) ) ;
#32 = DIRECTION ( 'NONE',  ( 0.0000000000000000000, -1.000000000000000000, 0.0000000000000000000 ) ) ;
#33 = DIRECTION ( 'NONE',  ( -0.0000000000000000000, -1.000000000000000000, -0.0000000000000000000 ) ) ;
#34 = PERSON ( 'UNSPECIFIED', 'UNSPECIFIED', 'UNSPECIFIED', ('UNSPECIFIED'), ('UNSPECIFIED'), ('UNSPECIFIED') ) ;
#35 = VECTOR ( 'NONE', #33, 1000.000000000000000 ) ;
#36 = CARTESIAN_POINT ( 'NONE',  ( 0.0000000000000000000, 25.00000000000000000, 3.000000000000000000 ) ) ;
#37 = COORDINATED_UNIVERSAL_TIME_OFFSET ( 5, 0, .BEHIND. ) ;
#38 = FACE_OUTER_BOUND ( 'NONE', #41, .T. ) ;
#39 = CALENDAR_DATE ( 2017, 31, 1 ) ;
#40 = LINE ( 'NONE', #12, #130 ) ;
#41 = EDGE_LOOP ( 'NONE', ( #78, #216, #124, #235 ) ) ;
#42 = DIRECTION ( 'NONE',  ( 0.0000000000000000000, -0.0000000000000000000, 1.000000000000000000 ) ) ;
#43 = FACE_OUTER_BOUND ( 'NONE', #117, .T. ) ;
#44 = CARTESIAN_POINT ( 'NONE',  ( 0.0000000000000000000, 0.0000000000000000000, 0.0000000000000000000 ) ) ;
#45 = CARTESIAN_POINT ( 'NONE',  ( 0.0000000000000000000, 0.0000000000000000000, 3.000000000000000000 ) ) ;
#46 = APPLICATION_CONTEXT ( 'configuration controlled 3d designs of mechanical parts and assemblies' ) ;
#47 = SECURITY_CLASSIFICATION_LEVEL ( 'unclassified' ) ;
#48 = DIRECTION ( 'NONE',  ( -1.000000000000000000, 0.0000000000000000000, 0.0000000000000000000 ) ) ;
#49 = AXIS2_PLACEMENT_3D ( 'NONE', #21, #156, #42 ) ;
#50 = VECTOR ( 'NONE', #109, 1000.000000000000000 ) ;
#51 = APPROVAL_DATE_TIME ( #97, #77 ) ;
#52 = CLOSED_SHELL ( 'NONE', ( #227, #99, #194, #62, #24, #158 ) ) ;
#53 = CALENDAR_DATE ( 2017, 31, 1 ) ;
#54 = CALENDAR_DATE ( 2017, 31, 1 ) ;
#55 = PRODUCT_RELATED_PRODUCT_CATEGORY ( 'detail', '', ( #188 ) ) ;
#56 = VECTOR ( 'NONE', #180, 1000.000000000000000 ) ;
#57 = SHAPE_DEFINITION_REPRESENTATION ( #164, #81 ) ;
#58 = VERTEX_POINT ( 'NONE', #73 ) ;
#59 = DATE_AND_TIME ( #173, #225 ) ;
#60 = CC_DESIGN_PERSON_AND_ORGANIZATION_ASSIGNMENT ( #198, #65, ( #188 ) ) ;
#61 = AXIS2_PLACEMENT_3D ( 'NONE', #36, #169, #126 ) ;
#62 = ADVANCED_FACE ( 'NONE', ( #123 ), #185, .F. ) ;
#63 = PERSON_AND_ORGANIZATION_ROLE ( 'creator' ) ;
#64 = PERSON_AND_ORGANIZATION ( #34, #152 ) ;
#65 = PERSON_AND_ORGANIZATION_ROLE ( 'design_owner' ) ;
#66 = DIRECTION ( 'NONE',  ( -0.0000000000000000000, -0.0000000000000000000, -1.000000000000000000 ) ) ;
#67 = PLANE ( 'NONE',  #224 ) ;
#68 = APPLICATION_PROTOCOL_DEFINITION ( 'international standard', 'config_control_design', 1994, #7 ) ;
#69 = CARTESIAN_POINT ( 'NONE',  ( 38.00000000000000000, 0.0000000000000000000, 3.000000000000000000 ) ) ;
#70 = PERSON_AND_ORGANIZATION ( #34, #152 ) ;
#71 = DATE_AND_TIME ( #53, #151 ) ;
#72 = CARTESIAN_POINT ( 'NONE',  ( 0.0000000000000000000, 0.0000000000000000000, 0.0000000000000000000 ) ) ;
#73 = CARTESIAN_POINT ( 'NONE',  ( 38.00000000000000000, 0.0000000000000000000, 0.0000000000000000000 ) ) ;
#74 = PRODUCT_DEFINITION ( 'UNKNOWN', '', #95, #206 ) ;
#75 = LOCAL_TIME ( 10, 20, 9.000000000000000000, #207 ) ;
#76 = AXIS2_PLACEMENT_3D ( 'NONE', #160, #25, #106 ) ;
#77 = APPROVAL ( #178, 'UNSPECIFIED' ) ;
#78 = ORIENTED_EDGE ( 'NONE', *, *, #90, .F. ) ;
#79 = ORIENTED_EDGE ( 'NONE', *, *, #234, .F. ) ;
#80 = CC_DESIGN_PERSON_AND_ORGANIZATION_ASSIGNMENT ( #92, #140, ( #95 ) ) ;
#81 = ADVANCED_BREP_SHAPE_REPRESENTATION ( 'Web Model 47023', ( #118, #205 ), #170 ) ;
#82 = DATE_TIME_ROLE ( 'classification_date' ) ;
#83 = APPROVAL_STATUS ( 'not_yet_approved' ) ;
#84 = ORIENTED_EDGE ( 'NONE', *, *, #139, .T. ) ;
#85 = DATE_TIME_ROLE ( 'creation_date' ) ;
#86 = CC_DESIGN_PERSON_AND_ORGANIZATION_ASSIGNMENT ( #159, #104, ( #74 ) ) ;
#87 = DIRECTION ( 'NONE',  ( -1.000000000000000000, -0.0000000000000000000, -0.0000000000000000000 ) ) ;
#88 = APPROVAL ( #215, 'UNSPECIFIED' ) ;
#89 = CC_DESIGN_SECURITY_CLASSIFICATION ( #219, ( #95 ) ) ;
#90 = EDGE_CURVE ( 'NONE', #210, #187, #100, .T. ) ;
#91 = CARTESIAN_POINT ( 'NONE',  ( 38.00000000000000000, 0.0000000000000000000, 3.000000000000000000 ) ) ;
#92 = PERSON_AND_ORGANIZATION ( #34, #152 ) ;
#93 = VERTEX_POINT ( 'NONE', #204 ) ;
#94 = VECTOR ( 'NONE', #186, 1000.000000000000000 ) ;
#95 = PRODUCT_DEFINITION_FORMATION_WITH_SPECIFIED_SOURCE ( 'ANY', '', #188, .NOT_KNOWN. ) ;
#96 = EDGE_CURVE ( 'NONE', #58, #191, #131, .T. ) ;
#97 = DATE_AND_TIME ( #39, #75 ) ;
#98 = EDGE_LOOP ( 'NONE', ( #165, #236, #233, #18 ) ) ;
#99 = ADVANCED_FACE ( 'NONE', ( #223 ), #135, .F. ) ;
#100 = LINE ( 'NONE', #72, #35 ) ;
#101 = DIRECTION ( 'NONE',  ( -0.0000000000000000000, -0.0000000000000000000, -1.000000000000000000 ) ) ;
#102 = EDGE_CURVE ( 'NONE', #191, #210, #114, .T. ) ;
#103 = COORDINATED_UNIVERSAL_TIME_OFFSET ( 5, 0, .BEHIND. ) ;
#104 = PERSON_AND_ORGANIZATION_ROLE ( 'creator' ) ;
#105 = CARTESIAN_POINT ( 'NONE',  ( 0.0000000000000000000, 0.0000000000000000000, 3.000000000000000000 ) ) ;
#106 = DIRECTION ( 'NONE',  ( 0.0000000000000000000, 0.0000000000000000000, -1.000000000000000000 ) ) ;
#107 = EDGE_LOOP ( 'NONE', ( #200, #175, #2, #150 ) ) ;
#108 = DATE_AND_TIME ( #16, #5 ) ;
#109 = DIRECTION ( 'NONE',  ( 1.000000000000000000, 0.0000000000000000000, 0.0000000000000000000 ) ) ;
#110 = LINE ( 'NONE', #127, #181 ) ;
#111 = DIRECTION ( 'NONE',  ( -0.0000000000000000000, -0.0000000000000000000, -1.000000000000000000 ) ) ;
#112 = COORDINATED_UNIVERSAL_TIME_OFFSET ( 5, 0, .BEHIND. ) ;
#113 = CC_DESIGN_APPROVAL ( #132, ( #74 ) ) ;
#114 = LINE ( 'NONE', #8, #203 ) ;
#115 = AXIS2_PLACEMENT_3D ( 'NONE', #146, #32, #167 ) ;
#116 = CC_DESIGN_APPROVAL ( #77, ( #219 ) ) ;
#117 = EDGE_LOOP ( 'NONE', ( #15, #196, #28, #134 ) ) ;
#118 = MANIFOLD_SOLID_BREP ( 'Extrude1', #52 ) ;
#119 = APPROVAL_DATE_TIME ( #59, #88 ) ;
#120 = APPLICATION_PROTOCOL_DEFINITION ( 'international standard', 'config_control_design', 1994, #46 ) ;
#121 = PLANE ( 'NONE',  #76 ) ;
#122 = DIRECTION ( 'NONE',  ( 1.000000000000000000, 0.0000000000000000000, 0.0000000000000000000 ) ) ;
#123 = FACE_OUTER_BOUND ( 'NONE', #9, .T. ) ;
#124 = ORIENTED_EDGE ( 'NONE', *, *, #96, .F. ) ;
#125 = AXIS2_PLACEMENT_3D ( 'NONE', #145, #137, #179 ) ;
#126 = DIRECTION ( 'NONE',  ( -1.000000000000000000, 0.0000000000000000000, -0.0000000000000000000 ) ) ;
#127 = CARTESIAN_POINT ( 'NONE',  ( 0.0000000000000000000, 25.00000000000000000, 3.000000000000000000 ) ) ;
#128 = COORDINATED_UNIVERSAL_TIME_OFFSET ( 5, 0, .BEHIND. ) ;
#129 = VERTEX_POINT ( 'NONE', #141 ) ;
#130 = VECTOR ( 'NONE', #31, 1000.000000000000000 ) ;
#131 = LINE ( 'NONE', #218, #147 ) ;
#132 = APPROVAL ( #83, 'UNSPECIFIED' ) ;
#133 = CARTESIAN_POINT ( 'NONE',  ( 0.0000000000000000000, 0.0000000000000000000, 0.0000000000000000000 ) ) ;
#134 = ORIENTED_EDGE ( 'NONE', *, *, #234, .T. ) ;
#135 = PLANE ( 'NONE',  #49 ) ;
#136 =( NAMED_UNIT ( * ) PLANE_ANGLE_UNIT ( ) SI_UNIT ( $, .RADIAN. ) );
#137 = DIRECTION ( 'NONE',  ( 0.0000000000000000000, 0.0000000000000000000, -1.000000000000000000 ) ) ;
#138 = DIRECTION ( 'NONE',  ( -1.000000000000000000, -0.0000000000000000000, -0.0000000000000000000 ) ) ;
#139 = EDGE_CURVE ( 'NONE', #190, #187, #184, .T. ) ;
#140 = PERSON_AND_ORGANIZATION_ROLE ( 'design_supplier' ) ;
#141 = CARTESIAN_POINT ( 'NONE',  ( 0.0000000000000000000, 25.00000000000000000, 3.000000000000000000 ) ) ;
#142 = CC_DESIGN_APPROVAL ( #88, ( #95 ) ) ;
#143 = LINE ( 'NONE', #230, #166 ) ;
#144 = ORIENTED_EDGE ( 'NONE', *, *, #201, .T. ) ;
#145 = CARTESIAN_POINT ( 'NONE',  ( 0.0000000000000000000, 25.00000000000000000, 0.0000000000000000000 ) ) ;
#146 = CARTESIAN_POINT ( 'NONE',  ( 0.0000000000000000000, 25.00000000000000000, 3.000000000000000000 ) ) ;
#147 = VECTOR ( 'NONE', #177, 1000.000000000000000 ) ;
#148 = APPROVAL_DATE_TIME ( #209, #132 ) ;
#149 = PLANE ( 'NONE',  #61 ) ;
#150 = ORIENTED_EDGE ( 'NONE', *, *, #221, .T. ) ;
#151 = LOCAL_TIME ( 10, 20, 9.000000000000000000, #128 ) ;
#152 = ORGANIZATION ( 'UNSPECIFIED', 'UNSPECIFIED', '' ) ;
#153 = EDGE_CURVE ( 'NONE', #187, #58, #143, .T. ) ;
#154 = ORIENTED_EDGE ( 'NONE', *, *, #153, .T. ) ;
#155 = CARTESIAN_POINT ( 'NONE',  ( 0.0000000000000000000, 0.0000000000000000000, 3.000000000000000000 ) ) ;
#156 = DIRECTION ( 'NONE',  ( 0.0000000000000000000, 1.000000000000000000, 0.0000000000000000000 ) ) ;
#157 = LINE ( 'NONE', #91, #94 ) ;
#158 = ADVANCED_FACE ( 'NONE', ( #38 ), #202, .T. ) ;
#159 = PERSON_AND_ORGANIZATION ( #34, #152 ) ;
#160 = CARTESIAN_POINT ( 'NONE',  ( 0.0000000000000000000, 0.0000000000000000000, 3.000000000000000000 ) ) ;
#161 = FACE_OUTER_BOUND ( 'NONE', #98, .T. ) ;
#162 = MECHANICAL_CONTEXT ( 'NONE', #46, 'mechanical' ) ;
#163 = DIRECTION ( 'NONE',  ( 0.0000000000000000000, 0.0000000000000000000, 1.000000000000000000 ) ) ;
#164 = PRODUCT_DEFINITION_SHAPE ( 'NONE', 'NONE',  #74 ) ;
#165 = ORIENTED_EDGE ( 'NONE', *, *, #90, .T. ) ;
#166 = VECTOR ( 'NONE', #122, 1000.000000000000000 ) ;
#167 = DIRECTION ( 'NONE',  ( 0.0000000000000000000, -0.0000000000000000000, -1.000000000000000000 ) ) ;
#168 = CARTESIAN_POINT ( 'NONE',  ( 38.00000000000000000, 25.00000000000000000, 0.0000000000000000000 ) ) ;
#169 = DIRECTION ( 'NONE',  ( 0.0000000000000000000, 0.0000000000000000000, -1.000000000000000000 ) ) ;
#170 =( GEOMETRIC_REPRESENTATION_CONTEXT ( 3 ) GLOBAL_UNCERTAINTY_ASSIGNED_CONTEXT ( ( #29 ) ) GLOBAL_UNIT_ASSIGNED_CONTEXT ( ( #182, #136, #195 ) ) REPRESENTATION_CONTEXT ( 'NONE', 'WORKASPACE' ) );
#171 = ORIENTED_EDGE ( 'NONE', *, *, #102, .T. ) ;
#172 = CC_DESIGN_PERSON_AND_ORGANIZATION_ASSIGNMENT ( #226, #63, ( #95 ) ) ;
#173 = CALENDAR_DATE ( 2017, 31, 1 ) ;
#174 = LINE ( 'NONE', #26, #1 ) ;
#175 = ORIENTED_EDGE ( 'NONE', *, *, #201, .F. ) ;
#176 = VERTEX_POINT ( 'NONE', #4 ) ;
#177 = DIRECTION ( 'NONE',  ( 0.0000000000000000000, 1.000000000000000000, 0.0000000000000000000 ) ) ;
#178 = APPROVAL_STATUS ( 'not_yet_approved' ) ;
#179 = DIRECTION ( 'NONE',  ( -1.000000000000000000, 0.0000000000000000000, -0.0000000000000000000 ) ) ;
#180 = DIRECTION ( 'NONE',  ( -0.0000000000000000000, -1.000000000000000000, -0.0000000000000000000 ) ) ;
#181 = VECTOR ( 'NONE', #111, 1000.000000000000000 ) ;
#182 =( LENGTH_UNIT ( ) NAMED_UNIT ( * ) SI_UNIT ( .MILLI., .METRE. ) );
#183 = PERSON_AND_ORGANIZATION_ROLE ( 'classification_officer' ) ;
#184 = LINE ( 'NONE', #27, #189 ) ;
#185 = PLANE ( 'NONE',  #115 ) ;
#186 = DIRECTION ( 'NONE',  ( 0.0000000000000000000, 1.000000000000000000, 0.0000000000000000000 ) ) ;
#187 = VERTEX_POINT ( 'NONE', #133 ) ;
#188 = PRODUCT ( 'Web Model 47023', 'Web Model 47023', '', ( #162 ) ) ;
#189 = VECTOR ( 'NONE', #66, 1000.000000000000000 ) ;
#190 = VERTEX_POINT ( 'NONE', #155 ) ;
#191 = VERTEX_POINT ( 'NONE', #168 ) ;
#192 = EDGE_CURVE ( 'NONE', #129, #190, #17, .T. ) ;
#193 = ORIENTED_EDGE ( 'NONE', *, *, #211, .F. ) ;
#194 = ADVANCED_FACE ( 'NONE', ( #217 ), #67, .F. ) ;
#195 =( NAMED_UNIT ( * ) SI_UNIT ( $, .STERADIAN. ) SOLID_ANGLE_UNIT ( ) );
#196 = ORIENTED_EDGE ( 'NONE', *, *, #211, .T. ) ;
#197 = DIRECTION ( 'NONE',  ( 1.000000000000000000, 0.0000000000000000000, 0.0000000000000000000 ) ) ;
#198 = PERSON_AND_ORGANIZATION ( #34, #152 ) ;
#199 = APPROVAL_ROLE ( '' ) ;
#200 = ORIENTED_EDGE ( 'NONE', *, *, #96, .T. ) ;
#201 = EDGE_CURVE ( 'NONE', #176, #191, #40, .T. ) ;
#202 = PLANE ( 'NONE',  #125 ) ;
#203 = VECTOR ( 'NONE', #87, 1000.000000000000000 ) ;
#204 = CARTESIAN_POINT ( 'NONE',  ( 38.00000000000000000, 0.0000000000000000000, 3.000000000000000000 ) ) ;
#205 = AXIS2_PLACEMENT_3D ( 'NONE', #44, #229, #197 ) ;
#206 = DESIGN_CONTEXT ( 'detailed design', #7, 'design' ) ;
#207 = COORDINATED_UNIVERSAL_TIME_OFFSET ( 5, 0, .BEHIND. ) ;
#208 = ORIENTED_EDGE ( 'NONE', *, *, #221, .F. ) ;
#209 = DATE_AND_TIME ( #54, #11 ) ;
#210 = VERTEX_POINT ( 'NONE', #212 ) ;
#211 = EDGE_CURVE ( 'NONE', #190, #93, #30, .T. ) ;
#212 = CARTESIAN_POINT ( 'NONE',  ( 0.0000000000000000000, 25.00000000000000000, 0.0000000000000000000 ) ) ;
#213 = APPROVAL_ROLE ( '' ) ;
#214 = LINE ( 'NONE', #6, #13 ) ;
#215 = APPROVAL_STATUS ( 'not_yet_approved' ) ;
#216 = ORIENTED_EDGE ( 'NONE', *, *, #102, .F. ) ;
#217 = FACE_OUTER_BOUND ( 'NONE', #107, .T. ) ;
#218 = CARTESIAN_POINT ( 'NONE',  ( 38.00000000000000000, 0.0000000000000000000, 0.0000000000000000000 ) ) ;
#219 = SECURITY_CLASSIFICATION ( '', '', #47 ) ;
#220 = ORIENTED_EDGE ( 'NONE', *, *, #3, .F. ) ;
#221 = EDGE_CURVE ( 'NONE', #93, #58, #174, .T. ) ;
#222 = APPROVAL_PERSON_ORGANIZATION ( #22, #88, #231 ) ;
#223 = FACE_OUTER_BOUND ( 'NONE', #228, .T. ) ;
#224 = AXIS2_PLACEMENT_3D ( 'NONE', #69, #48, #163 ) ;
#225 = LOCAL_TIME ( 10, 20, 9.000000000000000000, #37 ) ;
#226 = PERSON_AND_ORGANIZATION ( #34, #152 ) ;
#227 = ADVANCED_FACE ( 'NONE', ( #161 ), #121, .F. ) ;
#228 = EDGE_LOOP ( 'NONE', ( #154, #208, #193, #84 ) ) ;
#229 = DIRECTION ( 'NONE',  ( 0.0000000000000000000, 0.0000000000000000000, 1.000000000000000000 ) ) ;
#230 = CARTESIAN_POINT ( 'NONE',  ( 0.0000000000000000000, 0.0000000000000000000, 0.0000000000000000000 ) ) ;
#231 = APPROVAL_ROLE ( '' ) ;
#232 = CC_DESIGN_DATE_AND_TIME_ASSIGNMENT ( #108, #85, ( #74 ) ) ;
#233 = ORIENTED_EDGE ( 'NONE', *, *, #192, .F. ) ;
#234 = EDGE_CURVE ( 'NONE', #176, #129, #214, .T. ) ;
#235 = ORIENTED_EDGE ( 'NONE', *, *, #153, .F. ) ;
#236 = ORIENTED_EDGE ( 'NONE', *, *, #139, .F. ) ;
#237 = APPROVAL_PERSON_ORGANIZATION ( #64, #132, #199 ) ;
ENDSEC;
END-ISO-10303-21;
