ISO-10303-21;
HEADER;
FILE_DESCRIPTION (( 'STEP AP203' ),
    '1' );
FILE_NAME ('12615-E0W.STEP',
    '2011-06-28T13:58:09',
    ( 'Admin' ),
    ( 'Thorlabs, Inc.' ),
    'SwSTEP 2.0',
    'SolidWorks 2011',
    '' );
FILE_SCHEMA (( 'CONFIG_CONTROL_DESIGN' ));
ENDSEC;

DATA;
#1 = UNCERTAINTY_MEASURE_WITH_UNIT (LENGTH_MEASURE( 1.000000000000000100E-005 ), #174, 'distance_accuracy_value', 'NONE');
#2 = PERSON ( 'UNSPECIFIED', 'UNSPECIFIED', 'UNSPECIFIED', ('UNSPECIFIED'), ('UNSPECIFIED'), ('UNSPECIFIED') ) ;
#3 = PRODUCT ( '12615-E0W', '12615-E0W', '', ( #129 ) ) ;
#4 = AXIS2_PLACEMENT_3D ( 'NONE', #136, #164, #74 ) ;
#5 = AXIS2_PLACEMENT_3D ( 'NONE', #193, #190, #197 ) ;
#6 = VECTOR ( 'NONE', #138, 39.37007874015748100 ) ;
#7 = AXIS2_PLACEMENT_3D ( 'NONE', #118, #144, #177 ) ;
#8 = AXIS2_PLACEMENT_3D ( 'NONE', #153, #117, #151 ) ;
#9 = AXIS2_PLACEMENT_3D ( 'NONE', #140, #120, #139 ) ;
#10 = AXIS2_PLACEMENT_3D ( 'NONE', #134, #152, #132 ) ;
#11 = AXIS2_PLACEMENT_3D ( 'NONE', #145, #131, #97 ) ;
#12 = AXIS2_PLACEMENT_3D ( 'NONE', #147, #121, #192 ) ;
#13 = AXIS2_PLACEMENT_3D ( 'NONE', #189, #137, #194 ) ;
#14 = AXIS2_PLACEMENT_3D ( 'NONE', #179, #135, #114 ) ;
#15 = CIRCLE ( 'NONE', #14, 0.2495000000000000300 ) ;
#16 = CIRCLE ( 'NONE', #61, 0.1975000000000000100 ) ;
#17 = PRODUCT_RELATED_PRODUCT_CATEGORY ( 'detail', '', ( #3 ) ) ;
#18 = CC_DESIGN_SECURITY_CLASSIFICATION ( #23, ( #28 ) ) ;
#19 = CC_DESIGN_APPROVAL ( #20, ( #23 ) ) ;
#20 = APPROVAL ( #165, 'UNSPECIFIED' ) ;
#21 = CC_DESIGN_DATE_AND_TIME_ASSIGNMENT ( #231, #92, ( #23 ) ) ;
#22 = CC_DESIGN_PERSON_AND_ORGANIZATION_ASSIGNMENT ( #234, #181, ( #23 ) ) ;
#23 = SECURITY_CLASSIFICATION ( '', '', #86 ) ;
#24 = CC_DESIGN_PERSON_AND_ORGANIZATION_ASSIGNMENT ( #235, #206, ( #28 ) ) ;
#25 = CC_DESIGN_PERSON_AND_ORGANIZATION_ASSIGNMENT ( #236, #207, ( #28 ) ) ;
#26 = CC_DESIGN_APPROVAL ( #27, ( #28 ) ) ;
#27 = APPROVAL ( #96, 'UNSPECIFIED' ) ;
#28 = PRODUCT_DEFINITION_FORMATION_WITH_SPECIFIED_SOURCE ( 'ANY', '', #3, .NOT_KNOWN. ) ;
#29 = CC_DESIGN_DATE_AND_TIME_ASSIGNMENT ( #221, #202, ( #33 ) ) ;
#30 = CC_DESIGN_PERSON_AND_ORGANIZATION_ASSIGNMENT ( #214, #170, ( #33 ) ) ;
#31 = CC_DESIGN_APPROVAL ( #32, ( #33 ) ) ;
#32 = APPROVAL ( #141, 'UNSPECIFIED' ) ;
#33 = PRODUCT_DEFINITION ( 'UNKNOWN', '', #28, #70 ) ;
#34 = CC_DESIGN_PERSON_AND_ORGANIZATION_ASSIGNMENT ( #212, #157, ( #3 ) ) ;
#35 = AXIS2_PLACEMENT_3D ( 'NONE', #127, #203, #72 ) ;
#36 = VECTOR ( 'NONE', #173, 39.37007874015748100 ) ;
#37 = VECTOR ( 'NONE', #178, 39.37007874015748100 ) ;
#38 = VECTOR ( 'NONE', #94, 39.37007874015748100 ) ;
#39 = AXIS2_PLACEMENT_3D ( 'NONE', #77, #89, #199 ) ;
#40 = VECTOR ( 'NONE', #84, 39.37007874015748100 ) ;
#41 = VECTOR ( 'NONE', #88, 39.37007874015748100 ) ;
#42 = CIRCLE ( 'NONE', #39, 0.1975000000000000100 ) ;
#43 = AXIS2_PLACEMENT_3D ( 'NONE', #78, #95, #93 ) ;
#44 = AXIS2_PLACEMENT_3D ( 'NONE', #81, #166, #182 ) ;
#45 = LENGTH_MEASURE_WITH_UNIT ( LENGTH_MEASURE( 0.02539999999999999900 ), #90 );
#46 = AXIS2_PLACEMENT_3D ( 'NONE', #149, #155, #196 ) ;
#47 = VECTOR ( 'NONE', #176, 39.37007874015748100 ) ;
#48 = CIRCLE ( 'NONE', #46, 0.2495000000000000300 ) ;
#49 = VECTOR ( 'NONE', #130, 39.37007874015748100 ) ;
#50 = AXIS2_PLACEMENT_3D ( 'NONE', #188, #150, #160 ) ;
#51 = VECTOR ( 'NONE', #201, 39.37007874015748100 ) ;
#52 = CIRCLE ( 'NONE', #43, 0.1975000000000000100 ) ;
#53 = AXIS2_PLACEMENT_3D ( 'NONE', #128, #200, #161 ) ;
#54 = CIRCLE ( 'NONE', #44, 0.2495000000000000300 ) ;
#55 = AXIS2_PLACEMENT_3D ( 'NONE', #171, #106, #98 ) ;
#56 = VECTOR ( 'NONE', #76, 39.37007874015748100 ) ;
#57 = AXIS2_PLACEMENT_3D ( 'NONE', #156, #110, #73 ) ;
#58 = VECTOR ( 'NONE', #146, 39.37007874015748100 ) ;
#59 = CIRCLE ( 'NONE', #57, 0.1975000000000000100 ) ;
#60 = CIRCLE ( 'NONE', #50, 0.2495000000000000300 ) ;
#61 = AXIS2_PLACEMENT_3D ( 'NONE', #183, #105, #123 ) ;
#62 = CIRCLE ( 'NONE', #53, 0.2495000000000000300 ) ;
#63 = AXIS2_PLACEMENT_3D ( 'NONE', #180, #185, #191 ) ;
#64 = VECTOR ( 'NONE', #186, 39.37007874015748100 ) ;
#65 = CIRCLE ( 'NONE', #63, 0.1975000000000000100 ) ;
#66 = CIRCLE ( 'NONE', #55, 0.2495000000000000300 ) ;
#67 = AXIS2_PLACEMENT_3D ( 'NONE', #109, #142, #184 ) ;
#68 = CIRCLE ( 'NONE', #67, 0.1975000000000000100 ) ;
#69 = AXIS2_PLACEMENT_3D ( 'NONE', #102, #205, #112 ) ;
#70 = DESIGN_CONTEXT ( 'detailed design', #159, 'design' ) ;
#71 = PRODUCT_DEFINITION_SHAPE ( 'NONE', 'NONE',  #33 ) ;
#72 = DIRECTION ( 'NONE',  ( 1.000000000000000000, 0.0000000000000000000, 0.0000000000000000000 ) ) ;
#73 = DIRECTION ( 'NONE',  ( 0.0000000000000000000, 0.0000000000000000000, 1.000000000000000000 ) ) ;
#74 = DIRECTION ( 'NONE',  ( 0.0000000000000000000, 0.0000000000000000000, -1.000000000000000000 ) ) ;
#75 = PLANE ( 'NONE',  #8 ) ;
#76 = DIRECTION ( 'NONE',  ( -0.0000000000000000000, -1.000000000000000000, -0.0000000000000000000 ) ) ;
#77 = CARTESIAN_POINT ( 'NONE',  ( -1.349418009824378700, 1.261388102108054400, 0.02527864109909810200 ) ) ;
#78 = CARTESIAN_POINT ( 'NONE',  ( -1.349418009824378700, 0.7613881021080544100, 0.02527864109909810200 ) ) ;
#79 = CARTESIAN_POINT ( 'NONE',  ( -1.101173674541577000, 0.7613881021080544100, 0.0002786410990981069900 ) ) ;
#80 = APPROVAL_ROLE ( '' ) ;
#81 = CARTESIAN_POINT ( 'NONE',  ( -1.349418009824378700, 0.7613881021080544100, 0.02527864109909810200 ) ) ;
#82 = CARTESIAN_POINT ( 'NONE',  ( -1.349418009824378700, 0.7613881021080544100, -0.2242213589009019200 ) ) ;
#83 = CARTESIAN_POINT ( 'NONE',  ( -1.153506677839727800, 0.7613881021080544100, 0.05027864109909811100 ) ) ;
#84 = DIRECTION ( 'NONE',  ( -0.0000000000000000000, -1.000000000000000000, -0.0000000000000000000 ) ) ;
#85 = CARTESIAN_POINT ( 'NONE',  ( -1.349418009824378700, 1.261388102108054400, -0.2242213589009019200 ) ) ;
#86 = SECURITY_CLASSIFICATION_LEVEL ( 'unclassified' ) ;
#87 = CARTESIAN_POINT ( 'NONE',  ( -1.101173674541577000, 1.261388102108054400, 0.0002786410990981069900 ) ) ;
#88 = DIRECTION ( 'NONE',  ( -1.000000000000000000, -0.0000000000000000000, -0.0000000000000000000 ) ) ;
#89 = DIRECTION ( 'NONE',  ( -0.0000000000000000000, -1.000000000000000000, -0.0000000000000000000 ) ) ;
#90 =( LENGTH_UNIT ( ) NAMED_UNIT ( * ) SI_UNIT ( $, .METRE. ) );
#91 = APPROVAL_ROLE ( '' ) ;
#92 = DATE_TIME_ROLE ( 'classification_date' ) ;
#93 = DIRECTION ( 'NONE',  ( 0.0000000000000000000, 0.0000000000000000000, 1.000000000000000000 ) ) ;
#94 = DIRECTION ( 'NONE',  ( -1.000000000000000000, -0.0000000000000000000, -0.0000000000000000000 ) ) ;
#95 = DIRECTION ( 'NONE',  ( -0.0000000000000000000, -1.000000000000000000, -0.0000000000000000000 ) ) ;
#96 = APPROVAL_STATUS ( 'not_yet_approved' ) ;
#97 = DIRECTION ( 'NONE',  ( 0.0000000000000000000, 0.0000000000000000000, -1.000000000000000000 ) ) ;
#98 = DIRECTION ( 'NONE',  ( 0.0000000000000000000, 0.0000000000000000000, 1.000000000000000000 ) ) ;
#99 = PLANE ( 'NONE',  #5 ) ;
#100 = CARTESIAN_POINT ( 'NONE',  ( -1.153506677839727800, 1.261388102108054400, 0.0002786410990981198400 ) ) ;
#101 = CARTESIAN_POINT ( 'NONE',  ( -1.101173674541577000, 1.261388102108054400, 0.0002786410990981069900 ) ) ;
#102 = CARTESIAN_POINT ( 'NONE',  ( -1.349418009824378700, 1.261388102108054400, 0.02527864109909810200 ) ) ;
#103 = CARTESIAN_POINT ( 'NONE',  ( -1.349418009824378700, 1.261388102108054400, 0.2227786410990981200 ) ) ;
#104 = CARTESIAN_POINT ( 'NONE',  ( -1.101173674541577000, 0.7613881021080544100, 0.05027864109909811100 ) ) ;
#105 = DIRECTION ( 'NONE',  ( -0.0000000000000000000, -1.000000000000000000, -0.0000000000000000000 ) ) ;
#106 = DIRECTION ( 'NONE',  ( 0.0000000000000000000, 1.000000000000000000, 0.0000000000000000000 ) ) ;
#107 = CARTESIAN_POINT ( 'NONE',  ( -1.349418009824378700, 1.261388102108054400, -0.2242213589009019200 ) ) ;
#108 = CARTESIAN_POINT ( 'NONE',  ( -1.349418009824378700, 0.7613881021080544100, 0.2227786410990981200 ) ) ;
#109 = CARTESIAN_POINT ( 'NONE',  ( -1.349418009824378700, 0.7613881021080544100, 0.02527864109909810200 ) ) ;
#110 = DIRECTION ( 'NONE',  ( -0.0000000000000000000, -1.000000000000000000, -0.0000000000000000000 ) ) ;
#111 = CARTESIAN_POINT ( 'NONE',  ( -1.153506677839727800, 0.7613881021080544100, 0.0002786410990981198400 ) ) ;
#112 = DIRECTION ( 'NONE',  ( 0.0000000000000000000, 0.0000000000000000000, -1.000000000000000000 ) ) ;
#113 = CARTESIAN_POINT ( 'NONE',  ( -1.349418009824378700, 1.261388102108054400, 0.2747786410990981100 ) ) ;
#114 = DIRECTION ( 'NONE',  ( 0.0000000000000000000, 0.0000000000000000000, 1.000000000000000000 ) ) ;
#115 = CARTESIAN_POINT ( 'NONE',  ( -1.349418009824378700, 1.261388102108054400, -0.1722213589009019000 ) ) ;
#116 = CARTESIAN_POINT ( 'NONE',  ( -1.153506677839727800, 1.261388102108054400, 0.0002786410990981198400 ) ) ;
#117 = DIRECTION ( 'NONE',  ( 0.0000000000000000000, 1.000000000000000000, 0.0000000000000000000 ) ) ;
#118 = CARTESIAN_POINT ( 'NONE',  ( -1.101173674541577000, 1.261388102108054400, 0.0002786410990981069900 ) ) ;
#119 = CARTESIAN_POINT ( 'NONE',  ( -1.101173674541577000, 0.7613881021080544100, 0.0002786410990981069900 ) ) ;
#120 = DIRECTION ( 'NONE',  ( 0.0000000000000000000, 0.0000000000000000000, 1.000000000000000000 ) ) ;
#121 = DIRECTION ( 'NONE',  ( -0.0000000000000000000, -1.000000000000000000, -0.0000000000000000000 ) ) ;
#122 = CARTESIAN_POINT ( 'NONE',  ( -1.349418009824378700, 1.261388102108054400, 0.2227786410990981200 ) ) ;
#123 = DIRECTION ( 'NONE',  ( 0.0000000000000000000, 0.0000000000000000000, 1.000000000000000000 ) ) ;
#124 = CARTESIAN_POINT ( 'NONE',  ( -1.349418009824378700, 0.7613881021080544100, 0.2747786410990981100 ) ) ;
#125 = CARTESIAN_POINT ( 'NONE',  ( -1.349418009824378700, 0.7613881021080544100, -0.1722213589009019000 ) ) ;
#126 = CARTESIAN_POINT ( 'NONE',  ( -1.153506677839727800, 1.261388102108054400, 0.05027864109909811100 ) ) ;
#127 = CARTESIAN_POINT ( 'NONE',  ( 0.0000000000000000000, 0.0000000000000000000, 0.0000000000000000000 ) ) ;
#128 = CARTESIAN_POINT ( 'NONE',  ( -1.349418009824378700, 1.261388102108054400, 0.02527864109909810200 ) ) ;
#129 = MECHANICAL_CONTEXT ( 'NONE', #133, 'mechanical' ) ;
#130 = DIRECTION ( 'NONE',  ( -0.0000000000000000000, -1.000000000000000000, -0.0000000000000000000 ) ) ;
#131 = DIRECTION ( 'NONE',  ( -0.0000000000000000000, -1.000000000000000000, -0.0000000000000000000 ) ) ;
#132 = DIRECTION ( 'NONE',  ( 0.0000000000000000000, 0.0000000000000000000, -1.000000000000000000 ) ) ;
#133 = APPLICATION_CONTEXT ( 'configuration controlled 3d designs of mechanical parts and assemblies' ) ;
#134 = CARTESIAN_POINT ( 'NONE',  ( -1.349418009824378700, 1.261388102108054400, 0.02527864109909810200 ) ) ;
#135 = DIRECTION ( 'NONE',  ( 0.0000000000000000000, 1.000000000000000000, 0.0000000000000000000 ) ) ;
#136 = CARTESIAN_POINT ( 'NONE',  ( -1.349418009824378700, 1.261388102108054400, 0.02527864109909810200 ) ) ;
#137 = DIRECTION ( 'NONE',  ( -0.0000000000000000000, -1.000000000000000000, -0.0000000000000000000 ) ) ;
#138 = DIRECTION ( 'NONE',  ( -0.0000000000000000000, -1.000000000000000000, -0.0000000000000000000 ) ) ;
#139 = DIRECTION ( 'NONE',  ( 1.000000000000000000, 0.0000000000000000000, -0.0000000000000000000 ) ) ;
#140 = CARTESIAN_POINT ( 'NONE',  ( -1.153506677839727800, 1.261388102108054400, 0.05027864109909811100 ) ) ;
#141 = APPROVAL_STATUS ( 'not_yet_approved' ) ;
#142 = DIRECTION ( 'NONE',  ( -0.0000000000000000000, -1.000000000000000000, -0.0000000000000000000 ) ) ;
#143 = APPLICATION_PROTOCOL_DEFINITION ( 'international standard', 'config_control_design', 1994, #159 ) ;
#144 = DIRECTION ( 'NONE',  ( 1.631288946205472800E-016, 0.0000000000000000000, -1.000000000000000000 ) ) ;
#145 = CARTESIAN_POINT ( 'NONE',  ( -1.349418009824378700, 1.261388102108054400, 0.02527864109909810200 ) ) ;
#146 = DIRECTION ( 'NONE',  ( -0.0000000000000000000, -1.000000000000000000, -0.0000000000000000000 ) ) ;
#147 = CARTESIAN_POINT ( 'NONE',  ( -1.349418009824378700, 1.261388102108054400, 0.02527864109909810200 ) ) ;
#148 = APPLICATION_PROTOCOL_DEFINITION ( 'international standard', 'config_control_design', 1994, #133 ) ;
#149 = CARTESIAN_POINT ( 'NONE',  ( -1.349418009824378700, 1.261388102108054400, 0.02527864109909810200 ) ) ;
#150 = DIRECTION ( 'NONE',  ( 0.0000000000000000000, 1.000000000000000000, 0.0000000000000000000 ) ) ;
#151 = DIRECTION ( 'NONE',  ( 0.0000000000000000000, -0.0000000000000000000, 1.000000000000000000 ) ) ;
#152 = DIRECTION ( 'NONE',  ( -0.0000000000000000000, -1.000000000000000000, -0.0000000000000000000 ) ) ;
#153 = CARTESIAN_POINT ( 'NONE',  ( -1.349418009824378700, 0.7613881021080544100, 0.02527864109909810200 ) ) ;
#154 = CARTESIAN_POINT ( 'NONE',  ( -1.101173674541577000, 1.261388102108054400, 0.0002786410990981069900 ) ) ;
#155 = DIRECTION ( 'NONE',  ( 0.0000000000000000000, 1.000000000000000000, 0.0000000000000000000 ) ) ;
#156 = CARTESIAN_POINT ( 'NONE',  ( -1.349418009824378700, 1.261388102108054400, 0.02527864109909810200 ) ) ;
#157 = PERSON_AND_ORGANIZATION_ROLE ( 'design_owner' ) ;
#158 = PLANE ( 'NONE',  #7 ) ;
#159 = APPLICATION_CONTEXT ( 'configuration controlled 3d designs of mechanical parts and assemblies' ) ;
#160 = DIRECTION ( 'NONE',  ( 0.0000000000000000000, 0.0000000000000000000, 1.000000000000000000 ) ) ;
#161 = DIRECTION ( 'NONE',  ( 0.0000000000000000000, 0.0000000000000000000, 1.000000000000000000 ) ) ;
#162 = CARTESIAN_POINT ( 'NONE',  ( -1.153506677839727800, 0.7613881021080544100, 0.05027864109909811100 ) ) ;
#163 = CARTESIAN_POINT ( 'NONE',  ( -1.101173674541577000, 1.261388102108054400, 0.05027864109909811100 ) ) ;
#164 = DIRECTION ( 'NONE',  ( -0.0000000000000000000, -1.000000000000000000, -0.0000000000000000000 ) ) ;
#165 = APPROVAL_STATUS ( 'not_yet_approved' ) ;
#166 = DIRECTION ( 'NONE',  ( 0.0000000000000000000, 1.000000000000000000, 0.0000000000000000000 ) ) ;
#167 = CARTESIAN_POINT ( 'NONE',  ( -1.349418009824378700, 1.261388102108054400, 0.2747786410990981100 ) ) ;
#168 =( NAMED_UNIT ( * ) PLANE_ANGLE_UNIT ( ) SI_UNIT ( $, .RADIAN. ) );
#169 = APPROVAL_ROLE ( '' ) ;
#170 = PERSON_AND_ORGANIZATION_ROLE ( 'creator' ) ;
#171 = CARTESIAN_POINT ( 'NONE',  ( -1.349418009824378700, 1.261388102108054400, 0.02527864109909810200 ) ) ;
#172 = CARTESIAN_POINT ( 'NONE',  ( -1.153506677839727800, 1.261388102108054400, 0.05027864109909811100 ) ) ;
#173 = DIRECTION ( 'NONE',  ( 1.000000000000000000, -0.0000000000000000000, 1.631288946205473100E-016 ) ) ;
#174 =( CONVERSION_BASED_UNIT ( 'INCH', #45 ) LENGTH_UNIT ( ) NAMED_UNIT ( #311 ) );
#175 = CARTESIAN_POINT ( 'NONE',  ( -1.153506677839727800, 1.261388102108054400, 0.05027864109909811100 ) ) ;
#176 = DIRECTION ( 'NONE',  ( -0.0000000000000000000, -1.000000000000000000, -0.0000000000000000000 ) ) ;
#177 = DIRECTION ( 'NONE',  ( -1.000000000000000000, 0.0000000000000000000, -1.631288946205472800E-016 ) ) ;
#178 = DIRECTION ( 'NONE',  ( 1.000000000000000000, -0.0000000000000000000, 1.631288946205473100E-016 ) ) ;
#179 = CARTESIAN_POINT ( 'NONE',  ( -1.349418009824378700, 0.7613881021080544100, 0.02527864109909810200 ) ) ;
#180 = CARTESIAN_POINT ( 'NONE',  ( -1.349418009824378700, 0.7613881021080544100, 0.02527864109909810200 ) ) ;
#181 = PERSON_AND_ORGANIZATION_ROLE ( 'classification_officer' ) ;
#182 = DIRECTION ( 'NONE',  ( 0.0000000000000000000, 0.0000000000000000000, 1.000000000000000000 ) ) ;
#183 = CARTESIAN_POINT ( 'NONE',  ( -1.349418009824378700, 1.261388102108054400, 0.02527864109909810200 ) ) ;
#184 = DIRECTION ( 'NONE',  ( 0.0000000000000000000, 0.0000000000000000000, 1.000000000000000000 ) ) ;
#185 = DIRECTION ( 'NONE',  ( -0.0000000000000000000, -1.000000000000000000, -0.0000000000000000000 ) ) ;
#186 = DIRECTION ( 'NONE',  ( -0.0000000000000000000, -1.000000000000000000, -0.0000000000000000000 ) ) ;
#187 = CARTESIAN_POINT ( 'NONE',  ( -1.101173674541577000, 1.261388102108054400, 0.05027864109909811100 ) ) ;
#188 = CARTESIAN_POINT ( 'NONE',  ( -1.349418009824378700, 0.7613881021080544100, 0.02527864109909810200 ) ) ;
#189 = CARTESIAN_POINT ( 'NONE',  ( -1.349418009824378700, 1.261388102108054400, 0.02527864109909810200 ) ) ;
#190 = DIRECTION ( 'NONE',  ( 0.0000000000000000000, 1.000000000000000000, 0.0000000000000000000 ) ) ;
#191 = DIRECTION ( 'NONE',  ( 0.0000000000000000000, 0.0000000000000000000, 1.000000000000000000 ) ) ;
#192 = DIRECTION ( 'NONE',  ( 0.0000000000000000000, 0.0000000000000000000, -1.000000000000000000 ) ) ;
#193 = CARTESIAN_POINT ( 'NONE',  ( -1.349418009824378700, 1.261388102108054400, 0.02527864109909810200 ) ) ;
#194 = DIRECTION ( 'NONE',  ( 0.0000000000000000000, 0.0000000000000000000, -1.000000000000000000 ) ) ;
#195 = PLANE ( 'NONE',  #9 ) ;
#196 = DIRECTION ( 'NONE',  ( 0.0000000000000000000, 0.0000000000000000000, 1.000000000000000000 ) ) ;
#197 = DIRECTION ( 'NONE',  ( 0.0000000000000000000, -0.0000000000000000000, 1.000000000000000000 ) ) ;
#198 = CARTESIAN_POINT ( 'NONE',  ( -1.349418009824378700, 1.261388102108054400, -0.1722213589009019000 ) ) ;
#199 = DIRECTION ( 'NONE',  ( 0.0000000000000000000, 0.0000000000000000000, 1.000000000000000000 ) ) ;
#200 = DIRECTION ( 'NONE',  ( 0.0000000000000000000, 1.000000000000000000, 0.0000000000000000000 ) ) ;
#201 = DIRECTION ( 'NONE',  ( -0.0000000000000000000, -1.000000000000000000, -0.0000000000000000000 ) ) ;
#202 = DATE_TIME_ROLE ( 'creation_date' ) ;
#203 = DIRECTION ( 'NONE',  ( 0.0000000000000000000, 0.0000000000000000000, 1.000000000000000000 ) ) ;
#204 =( NAMED_UNIT ( * ) SI_UNIT ( $, .STERADIAN. ) SOLID_ANGLE_UNIT ( ) );
#205 = DIRECTION ( 'NONE',  ( -0.0000000000000000000, -1.000000000000000000, -0.0000000000000000000 ) ) ;
#206 = PERSON_AND_ORGANIZATION_ROLE ( 'design_supplier' ) ;
#207 = PERSON_AND_ORGANIZATION_ROLE ( 'creator' ) ;
#208 = ADVANCED_BREP_SHAPE_REPRESENTATION ( '12615-E0W', ( #344, #35 ), #346 ) ;
#209 = ORGANIZATION ( 'UNSPECIFIED', 'UNSPECIFIED', '' ) ;
#210 = PERSON_AND_ORGANIZATION ( #2, #209 ) ;
#211 = APPROVAL_PERSON_ORGANIZATION ( #210, #32, #169 ) ;
#212 = PERSON_AND_ORGANIZATION ( #2, #209 ) ;
#213 = SHAPE_DEFINITION_REPRESENTATION ( #71, #208 ) ;
#214 = PERSON_AND_ORGANIZATION ( #2, #209 ) ;
#215 = COORDINATED_UNIVERSAL_TIME_OFFSET ( 5, 0, .BEHIND. ) ;
#216 = CALENDAR_DATE ( 2011, 28, 6 ) ;
#217 = COORDINATED_UNIVERSAL_TIME_OFFSET ( 5, 0, .BEHIND. ) ;
#218 = APPROVAL_DATE_TIME ( #220, #32 ) ;
#219 = CALENDAR_DATE ( 2011, 28, 6 ) ;
#220 = DATE_AND_TIME ( #219, #381 ) ;
#221 = DATE_AND_TIME ( #216, #380 ) ;
#222 = PERSON_AND_ORGANIZATION ( #2, #209 ) ;
#223 = COORDINATED_UNIVERSAL_TIME_OFFSET ( 5, 0, .BEHIND. ) ;
#224 = LINE ( 'NONE', #154, #49 ) ;
#225 = APPROVAL_DATE_TIME ( #228, #20 ) ;
#226 = CALENDAR_DATE ( 2011, 28, 6 ) ;
#227 = APPROVAL_PERSON_ORGANIZATION ( #229, #20, #80 ) ;
#228 = DATE_AND_TIME ( #226, #384 ) ;
#229 = PERSON_AND_ORGANIZATION ( #2, #209 ) ;
#230 = COORDINATED_UNIVERSAL_TIME_OFFSET ( 5, 0, .BEHIND. ) ;
#231 = DATE_AND_TIME ( #232, #383 ) ;
#232 = CALENDAR_DATE ( 2011, 28, 6 ) ;
#233 = COORDINATED_UNIVERSAL_TIME_OFFSET ( 5, 0, .BEHIND. ) ;
#234 = PERSON_AND_ORGANIZATION ( #2, #209 ) ;
#235 = PERSON_AND_ORGANIZATION ( #2, #209 ) ;
#236 = PERSON_AND_ORGANIZATION ( #2, #209 ) ;
#237 = APPROVAL_DATE_TIME ( #238, #27 ) ;
#238 = DATE_AND_TIME ( #239, #382 ) ;
#239 = CALENDAR_DATE ( 2011, 28, 6 ) ;
#240 = LINE ( 'NONE', #87, #36 ) ;
#241 = LINE ( 'NONE', #79, #37 ) ;
#242 = LINE ( 'NONE', #126, #38 ) ;
#243 = LINE ( 'NONE', #175, #40 ) ;
#244 = LINE ( 'NONE', #83, #41 ) ;
#245 = LINE ( 'NONE', #85, #47 ) ;
#246 = LINE ( 'NONE', #103, #51 ) ;
#247 = APPROVAL_PERSON_ORGANIZATION ( #222, #27, #91 ) ;
#248 = LINE ( 'NONE', #163, #58 ) ;
#249 = LINE ( 'NONE', #167, #56 ) ;
#250 = LINE ( 'NONE', #116, #64 ) ;
#251 = CYLINDRICAL_SURFACE ( 'NONE', #69, 0.1975000000000000100 ) ;
#252 = FACE_OUTER_BOUND ( 'NONE', #268, .T. ) ;
#253 = CYLINDRICAL_SURFACE ( 'NONE', #12, 0.2495000000000000300 ) ;
#254 = FACE_OUTER_BOUND ( 'NONE', #269, .T. ) ;
#255 = CYLINDRICAL_SURFACE ( 'NONE', #13, 0.2495000000000000300 ) ;
#256 = FACE_OUTER_BOUND ( 'NONE', #271, .T. ) ;
#257 = CYLINDRICAL_SURFACE ( 'NONE', #11, 0.2495000000000000300 ) ;
#258 = FACE_OUTER_BOUND ( 'NONE', #272, .T. ) ;
#259 = CYLINDRICAL_SURFACE ( 'NONE', #10, 0.1975000000000000100 ) ;
#260 = FACE_OUTER_BOUND ( 'NONE', #270, .T. ) ;
#261 = CYLINDRICAL_SURFACE ( 'NONE', #4, 0.1975000000000000100 ) ;
#262 = FACE_OUTER_BOUND ( 'NONE', #274, .T. ) ;
#263 = FACE_OUTER_BOUND ( 'NONE', #275, .T. ) ;
#264 = FACE_OUTER_BOUND ( 'NONE', #276, .T. ) ;
#265 = FACE_OUTER_BOUND ( 'NONE', #278, .T. ) ;
#266 = LINE ( 'NONE', #198, #6 ) ;
#267 = FACE_OUTER_BOUND ( 'NONE', #273, .T. ) ;
#268 = EDGE_LOOP ( 'NONE', ( #327, #324, #320, #322 ) ) ;
#269 = EDGE_LOOP ( 'NONE', ( #317, #326, #316, #325 ) ) ;
#270 = EDGE_LOOP ( 'NONE', ( #321, #319, #314, #313 ) ) ;
#271 = EDGE_LOOP ( 'NONE', ( #318, #323, #315, #289 ) ) ;
#272 = EDGE_LOOP ( 'NONE', ( #304, #309, #307, #308 ) ) ;
#273 = EDGE_LOOP ( 'NONE', ( #292, #291, #288, #295, #287, #279, #310, #312 ) ) ;
#274 = EDGE_LOOP ( 'NONE', ( #285, #286, #284, #300 ) ) ;
#275 = EDGE_LOOP ( 'NONE', ( #303, #301, #280, #302, #299, #298, #297, #296 ) ) ;
#276 = EDGE_LOOP ( 'NONE', ( #305, #282, #293, #283 ) ) ;
#277 = CLOSED_SHELL ( 'NONE', ( #352, #356, #355, #354, #353, #348, #351, #349, #350, #345 ) ) ;
#278 = EDGE_LOOP ( 'NONE', ( #281, #294, #306, #290 ) ) ;
#279 = ORIENTED_EDGE ( 'NONE', *, *, #374, .F. ) ;
#280 = ORIENTED_EDGE ( 'NONE', *, *, #365, .T. ) ;
#281 = ORIENTED_EDGE ( 'NONE', *, *, #378, .T. ) ;
#282 = ORIENTED_EDGE ( 'NONE', *, *, #375, .F. ) ;
#283 = ORIENTED_EDGE ( 'NONE', *, *, #362, .T. ) ;
#284 = ORIENTED_EDGE ( 'NONE', *, *, #375, .T. ) ;
#285 = ORIENTED_EDGE ( 'NONE', *, *, #367, .F. ) ;
#286 = ORIENTED_EDGE ( 'NONE', *, *, #376, .F. ) ;
#287 = ORIENTED_EDGE ( 'NONE', *, *, #373, .F. ) ;
#288 = ORIENTED_EDGE ( 'NONE', *, *, #360, .F. ) ;
#289 = ORIENTED_EDGE ( 'NONE', *, *, #372, .T. ) ;
#290 = ORIENTED_EDGE ( 'NONE', *, *, #359, .T. ) ;
#291 = ORIENTED_EDGE ( 'NONE', *, *, #378, .F. ) ;
#292 = ORIENTED_EDGE ( 'NONE', *, *, #368, .F. ) ;
#293 = ORIENTED_EDGE ( 'NONE', *, *, #377, .F. ) ;
#294 = ORIENTED_EDGE ( 'NONE', *, *, #369, .F. ) ;
#295 = ORIENTED_EDGE ( 'NONE', *, *, #358, .F. ) ;
#296 = ORIENTED_EDGE ( 'NONE', *, *, #379, .T. ) ;
#297 = ORIENTED_EDGE ( 'NONE', *, *, #361, .T. ) ;
#298 = ORIENTED_EDGE ( 'NONE', *, *, #363, .T. ) ;
#299 = ORIENTED_EDGE ( 'NONE', *, *, #376, .T. ) ;
#300 = ORIENTED_EDGE ( 'NONE', *, *, #373, .T. ) ;
#301 = ORIENTED_EDGE ( 'NONE', *, *, #366, .T. ) ;
#302 = ORIENTED_EDGE ( 'NONE', *, *, #377, .T. ) ;
#303 = ORIENTED_EDGE ( 'NONE', *, *, #371, .T. ) ;
#304 = ORIENTED_EDGE ( 'NONE', *, *, #370, .F. ) ;
#305 = ORIENTED_EDGE ( 'NONE', *, *, #374, .T. ) ;
#306 = ORIENTED_EDGE ( 'NONE', *, *, #379, .F. ) ;
#307 = ORIENTED_EDGE ( 'NONE', *, *, #369, .T. ) ;
#308 = ORIENTED_EDGE ( 'NONE', *, *, #368, .T. ) ;
#309 = ORIENTED_EDGE ( 'NONE', *, *, #371, .F. ) ;
#310 = ORIENTED_EDGE ( 'NONE', *, *, #357, .F. ) ;
#312 = ORIENTED_EDGE ( 'NONE', *, *, #372, .F. ) ;
#311 = DIMENSIONAL_EXPONENTS ( 1.000000000000000000, 0.0000000000000000000, 0.0000000000000000000, 0.0000000000000000000, 0.0000000000000000000, 0.0000000000000000000, 0.0000000000000000000 ) ;
#313 = ORIENTED_EDGE ( 'NONE', *, *, #347, .F. ) ;
#314 = ORIENTED_EDGE ( 'NONE', *, *, #358, .T. ) ;
#315 = ORIENTED_EDGE ( 'NONE', *, *, #370, .T. ) ;
#316 = ORIENTED_EDGE ( 'NONE', *, *, #357, .T. ) ;
#317 = ORIENTED_EDGE ( 'NONE', *, *, #365, .F. ) ;
#318 = ORIENTED_EDGE ( 'NONE', *, *, #364, .F. ) ;
#319 = ORIENTED_EDGE ( 'NONE', *, *, #367, .T. ) ;
#320 = ORIENTED_EDGE ( 'NONE', *, *, #360, .T. ) ;
#321 = ORIENTED_EDGE ( 'NONE', *, *, #363, .F. ) ;
#322 = ORIENTED_EDGE ( 'NONE', *, *, #359, .F. ) ;
#323 = ORIENTED_EDGE ( 'NONE', *, *, #366, .F. ) ;
#324 = ORIENTED_EDGE ( 'NONE', *, *, #347, .T. ) ;
#325 = ORIENTED_EDGE ( 'NONE', *, *, #362, .F. ) ;
#326 = ORIENTED_EDGE ( 'NONE', *, *, #364, .T. ) ;
#327 = ORIENTED_EDGE ( 'NONE', *, *, #361, .F. ) ;
#328 = VERTEX_POINT ( 'NONE', #187 ) ;
#329 = VERTEX_POINT ( 'NONE', #111 ) ;
#330 = VERTEX_POINT ( 'NONE', #125 ) ;
#331 = VERTEX_POINT ( 'NONE', #119 ) ;
#332 = VERTEX_POINT ( 'NONE', #101 ) ;
#333 = VERTEX_POINT ( 'NONE', #124 ) ;
#334 = VERTEX_POINT ( 'NONE', #104 ) ;
#335 = VERTEX_POINT ( 'NONE', #82 ) ;
#336 = VERTEX_POINT ( 'NONE', #122 ) ;
#337 = VERTEX_POINT ( 'NONE', #107 ) ;
#338 = VERTEX_POINT ( 'NONE', #108 ) ;
#339 = VERTEX_POINT ( 'NONE', #115 ) ;
#340 = VERTEX_POINT ( 'NONE', #172 ) ;
#341 = VERTEX_POINT ( 'NONE', #113 ) ;
#342 = VERTEX_POINT ( 'NONE', #162 ) ;
#343 = VERTEX_POINT ( 'NONE', #100 ) ;
#344 = MANIFOLD_SOLID_BREP ( '12615-001-1-solid1', #277 ) ;
#345 = ADVANCED_FACE ( 'NONE', ( #267 ), #75, .F. ) ;
#346 =( GEOMETRIC_REPRESENTATION_CONTEXT ( 3 ) GLOBAL_UNCERTAINTY_ASSIGNED_CONTEXT ( ( #1 ) ) GLOBAL_UNIT_ASSIGNED_CONTEXT ( ( #174, #168, #204 ) ) REPRESENTATION_CONTEXT ( 'NONE', 'WORKASPACE' ) );
#347 = EDGE_CURVE ( 'NONE', #339, #330, #266, .T. ) ;
#348 = ADVANCED_FACE ( 'NONE', ( #264 ), #195, .F. ) ;
#349 = ADVANCED_FACE ( 'NONE', ( #265 ), #158, .F. ) ;
#350 = ADVANCED_FACE ( 'NONE', ( #263 ), #99, .T. ) ;
#351 = ADVANCED_FACE ( 'NONE', ( #262 ), #261, .F. ) ;
#352 = ADVANCED_FACE ( 'NONE', ( #260 ), #259, .F. ) ;
#353 = ADVANCED_FACE ( 'NONE', ( #258 ), #257, .T. ) ;
#354 = ADVANCED_FACE ( 'NONE', ( #256 ), #255, .T. ) ;
#355 = ADVANCED_FACE ( 'NONE', ( #254 ), #253, .T. ) ;
#356 = ADVANCED_FACE ( 'NONE', ( #252 ), #251, .F. ) ;
#357 = EDGE_CURVE ( 'NONE', #333, #334, #15, .T. ) ;
#358 = EDGE_CURVE ( 'NONE', #338, #330, #68, .T. ) ;
#359 = EDGE_CURVE ( 'NONE', #343, #329, #250, .T. ) ;
#360 = EDGE_CURVE ( 'NONE', #330, #329, #65, .T. ) ;
#361 = EDGE_CURVE ( 'NONE', #339, #343, #16, .T. ) ;
#362 = EDGE_CURVE ( 'NONE', #328, #334, #248, .T. ) ;
#363 = EDGE_CURVE ( 'NONE', #336, #339, #59, .T. ) ;
#364 = EDGE_CURVE ( 'NONE', #341, #333, #249, .T. ) ;
#365 = EDGE_CURVE ( 'NONE', #341, #328, #66, .T. ) ;
#366 = EDGE_CURVE ( 'NONE', #337, #341, #62, .T. ) ;
#367 = EDGE_CURVE ( 'NONE', #336, #338, #246, .T. ) ;
#368 = EDGE_CURVE ( 'NONE', #331, #335, #60, .T. ) ;
#369 = EDGE_CURVE ( 'NONE', #332, #331, #224, .T. ) ;
#370 = EDGE_CURVE ( 'NONE', #337, #335, #245, .T. ) ;
#371 = EDGE_CURVE ( 'NONE', #332, #337, #48, .T. ) ;
#372 = EDGE_CURVE ( 'NONE', #335, #333, #54, .T. ) ;
#373 = EDGE_CURVE ( 'NONE', #342, #338, #52, .T. ) ;
#374 = EDGE_CURVE ( 'NONE', #334, #342, #244, .T. ) ;
#375 = EDGE_CURVE ( 'NONE', #340, #342, #243, .T. ) ;
#376 = EDGE_CURVE ( 'NONE', #340, #336, #42, .T. ) ;
#377 = EDGE_CURVE ( 'NONE', #328, #340, #242, .T. ) ;
#378 = EDGE_CURVE ( 'NONE', #329, #331, #241, .T. ) ;
#379 = EDGE_CURVE ( 'NONE', #343, #332, #240, .T. ) ;
#380 = LOCAL_TIME ( 9, 58, 9.000000000000000000, #215 ) ;
#381 = LOCAL_TIME ( 9, 58, 9.000000000000000000, #217 ) ;
#382 = LOCAL_TIME ( 9, 58, 9.000000000000000000, #223 ) ;
#383 = LOCAL_TIME ( 9, 58, 9.000000000000000000, #233 ) ;
#384 = LOCAL_TIME ( 9, 58, 9.000000000000000000, #230 ) ;
ENDSEC;
END-ISO-10303-21;
