ISO-10303-21;
HEADER;
FILE_DESCRIPTION (( 'STEP AP203' ),
    '1' );
FILE_NAME ('TTN097749-E0W.STEP',
    '2019-12-09T20:51:24',
    ( '' ),
    ( '' ),
    'SwSTEP 2.0',
    'SolidWorks 2018',
    '' );
FILE_SCHEMA (( 'CONFIG_CONTROL_DESIGN' ));
ENDSEC;

DATA;
#1 = AXIS2_PLACEMENT_3D ( 'NONE', #38, #106, #60 ) ;
#2 = PRODUCT_DEFINITION_FORMATION_WITH_SPECIFIED_SOURCE ( 'ANY', '', #279, .NOT_KNOWN. ) ;
#3 =( GEOMETRIC_REPRESENTATION_CONTEXT ( 3 ) GLOBAL_UNCERTAINTY_ASSIGNED_CONTEXT ( ( #63 ) ) GLOBAL_UNIT_ASSIGNED_CONTEXT ( ( #116, #91, #143 ) ) REPRESENTATION_CONTEXT ( 'NONE', 'WORKASPACE' ) );
#4 = EDGE_LOOP ( 'NONE', ( #55, #149, #132, #33 ) ) ;
#5 = DIRECTION ( 'NONE',  ( 0.0000000000000000000, 1.000000000000000000, -1.331775896911328985E-15 ) ) ;
#6 = AXIS2_PLACEMENT_3D ( 'NONE', #81, #64, #160 ) ;
#7 = DIRECTION ( 'NONE',  ( -0.0000000000000000000, -1.335063993641108318E-15, -1.000000000000000000 ) ) ;
#8 = ORIENTED_EDGE ( 'NONE', *, *, #98, .F. ) ;
#9 = CARTESIAN_POINT ( 'NONE',  ( 0.0000000000000000000, -2.883905414769872308E-15, 1.490000000000005098 ) ) ;
#10 = CARTESIAN_POINT ( 'NONE',  ( 0.0000000000000000000, 6.349999999999997868, 0.3711108043268971923 ) ) ;
#11 = COORDINATED_UNIVERSAL_TIME_OFFSET ( 5, 0, .BEHIND. ) ;
#12 = APPROVAL_ROLE ( '' ) ;
#13 = ORIENTED_EDGE ( 'NONE', *, *, #56, .F. ) ;
#14 = CYLINDRICAL_SURFACE ( 'NONE', #274, 6.349999999999996980 ) ;
#15 = APPROVAL_ROLE ( '' ) ;
#16 = EDGE_CURVE ( 'NONE', #243, #172, #150, .T. ) ;
#17 = DIRECTION ( 'NONE',  ( 0.0000000000000000000, 1.000000000000000000, 3.073328992872297353E-16 ) ) ;
#18 = CC_DESIGN_SECURITY_CLASSIFICATION ( #256, ( #2 ) ) ;
#19 = ORIENTED_EDGE ( 'NONE', *, *, #146, .F. ) ;
#20 = CIRCLE ( 'NONE', #72, 6.349999999999996980 ) ;
#21 = EDGE_CURVE ( 'NONE', #243, #31, #207, .T. ) ;
#22 = AXIS2_PLACEMENT_3D ( 'NONE', #226, #288, #166 ) ;
#23 = APPROVAL_PERSON_ORGANIZATION ( #286, #59, #12 ) ;
#24 = DIRECTION ( 'NONE',  ( -0.0000000000000000000, -1.335063993641108318E-15, -1.000000000000000000 ) ) ;
#25 = PERSON ( 'UNSPECIFIED', 'UNSPECIFIED', 'UNSPECIFIED', ('UNSPECIFIED'), ('UNSPECIFIED'), ('UNSPECIFIED') ) ;
#26 = LINE ( 'NONE', #200, #267 ) ;
#27 = ADVANCED_BREP_SHAPE_REPRESENTATION ( 'TTN097749-E0W', ( #117, #52 ), #3 ) ;
#28 = CARTESIAN_POINT ( 'NONE',  ( 7.654042494670951690E-16, -6.149999999999992362, 0.5711108043269135237 ) ) ;
#29 = CALENDAR_DATE ( 2019, 9, 12 ) ;
#30 = ADVANCED_FACE ( 'NONE', ( #300 ), #162, .T. ) ;
#31 = VERTEX_POINT ( 'NONE', #28 ) ;
#32 = CARTESIAN_POINT ( 'NONE',  ( 0.0000000000000000000, 3.619076559749921092E-15, 0.5711108043269053081 ) ) ;
#33 = ORIENTED_EDGE ( 'NONE', *, *, #206, .F. ) ;
#34 = FACE_OUTER_BOUND ( 'NONE', #294, .T. ) ;
#35 = DIRECTION ( 'NONE',  ( 0.0000000000000000000, 1.000000000000000000, 3.073328992872297353E-16 ) ) ;
#36 = EDGE_CURVE ( 'NONE', #161, #196, #51, .T. ) ;
#37 = ORIENTED_EDGE ( 'NONE', *, *, #281, .T. ) ;
#38 = CARTESIAN_POINT ( 'NONE',  ( 0.0000000000000000000, 3.619076559749921092E-15, 0.5711108043269053081 ) ) ;
#39 = DIRECTION ( 'NONE',  ( 1.000000000000000000, 0.0000000000000000000, 0.0000000000000000000 ) ) ;
#40 = AXIS2_PLACEMENT_3D ( 'NONE', #268, #205, #291 ) ;
#41 = ORIENTED_EDGE ( 'NONE', *, *, #48, .T. ) ;
#42 = DATE_AND_TIME ( #217, #45 ) ;
#43 = AXIS2_PLACEMENT_3D ( 'NONE', #287, #7, #184 ) ;
#44 = PRODUCT_DEFINITION_SHAPE ( 'NONE', 'NONE',  #197 ) ;
#45 = LOCAL_TIME ( 15, 51, 24.00000000000000000, #171 ) ;
#46 = PERSON_AND_ORGANIZATION ( #25, #75 ) ;
#47 = AXIS2_PLACEMENT_3D ( 'NONE', #182, #223, #185 ) ;
#48 = EDGE_CURVE ( 'NONE', #172, #196, #280, .T. ) ;
#49 = CARTESIAN_POINT ( 'NONE',  ( 0.0000000000000000000, 6.049555387882544168E-16, -1.489999999999999991 ) ) ;
#50 = CIRCLE ( 'NONE', #43, 6.149999999999997691 ) ;
#51 = CIRCLE ( 'NONE', #265, 6.349999999999994316 ) ;
#52 = AXIS2_PLACEMENT_3D ( 'NONE', #142, #94, #39 ) ;
#53 = DIRECTION ( 'NONE',  ( -0.0000000000000000000, -1.335063993641108318E-15, -1.000000000000000000 ) ) ;
#54 = SPHERICAL_SURFACE ( 'NONE', #47, 21.04000000000018389 ) ;
#55 = ORIENTED_EDGE ( 'NONE', *, *, #257, .F. ) ;
#56 = EDGE_CURVE ( 'NONE', #196, #161, #222, .T. ) ;
#57 = CARTESIAN_POINT ( 'NONE',  ( 0.0000000000000000000, 1.134374536716639134E-15, -1.289999999999991376 ) ) ;
#58 = PRODUCT_RELATED_PRODUCT_CATEGORY ( 'detail', '', ( #279 ) ) ;
#59 = APPROVAL ( #194, 'UNSPECIFIED' ) ;
#60 = DIRECTION ( 'NONE',  ( 0.0000000000000000000, 1.000000000000000000, -1.339827074941437190E-15 ) ) ;
#61 = ORIENTED_EDGE ( 'NONE', *, *, #56, .T. ) ;
#62 = CARTESIAN_POINT ( 'NONE',  ( 0.0000000000000000000, 6.349999999999997868, -1.489999999999997993 ) ) ;
#63 = UNCERTAINTY_MEASURE_WITH_UNIT (LENGTH_MEASURE( 1.000000000000000082E-05 ), #116, 'distance_accuracy_value', 'NONE');
#64 = DIRECTION ( 'NONE',  ( -0.0000000000000000000, 3.061515884555943146E-16, -1.000000000000000000 ) ) ;
#65 = FACE_OUTER_BOUND ( 'NONE', #219, .T. ) ;
#66 = CARTESIAN_POINT ( 'NONE',  ( 7.776507174585690191E-16, -6.349999999999996092, -1.289999999999982938 ) ) ;
#67 = ORIENTED_EDGE ( 'NONE', *, *, #74, .F. ) ;
#68 = CARTESIAN_POINT ( 'NONE',  ( 0.0000000000000000000, 8.673617379884170564E-16, -1.489999999999991775 ) ) ;
#69 = FACE_OUTER_BOUND ( 'NONE', #118, .T. ) ;
#70 = APPROVAL_STATUS ( 'not_yet_approved' ) ;
#71 = ORIENTED_EDGE ( 'NONE', *, *, #206, .T. ) ;
#72 = AXIS2_PLACEMENT_3D ( 'NONE', #57, #130, #5 ) ;
#73 = ORIENTED_EDGE ( 'NONE', *, *, #257, .T. ) ;
#74 = EDGE_CURVE ( 'NONE', #255, #95, #26, .T. ) ;
#75 = ORGANIZATION ( 'UNSPECIFIED', 'UNSPECIFIED', '' ) ;
#76 = CARTESIAN_POINT ( 'NONE',  ( 7.776507174585690191E-16, -6.349999999999996092, -1.490000000000001990 ) ) ;
#77 = CARTESIAN_POINT ( 'NONE',  ( 0.0000000000000000000, 6.149999999999999467, 0.5711108043268970924 ) ) ;
#78 = DATE_AND_TIME ( #263, #174 ) ;
#79 = CARTESIAN_POINT ( 'NONE',  ( 0.0000000000000000000, 3.352063761021699902E-15, 0.3711108043269056855 ) ) ;
#80 = CC_DESIGN_APPROVAL ( #59, ( #197 ) ) ;
#81 = CARTESIAN_POINT ( 'NONE',  ( 0.0000000000000000000, 6.049555387882547127E-16, -1.490000000000000879 ) ) ;
#82 = EDGE_CURVE ( 'NONE', #99, #95, #199, .T. ) ;
#83 = LINE ( 'NONE', #62, #276 ) ;
#84 = CARTESIAN_POINT ( 'NONE',  ( 0.0000000000000000000, 3.619076559749921092E-15, 0.5711108043269053081 ) ) ;
#85 = AXIS2_PLACEMENT_3D ( 'NONE', #68, #298, #138 ) ;
#86 = DIRECTION ( 'NONE',  ( -0.0000000000000000000, 3.061515884555943146E-16, -1.000000000000000000 ) ) ;
#87 = ORIENTED_EDGE ( 'NONE', *, *, #229, .T. ) ;
#88 = CARTESIAN_POINT ( 'NONE',  ( 7.776507174585686247E-16, -6.349999999999990763, 0.3711108043269141232 ) ) ;
#89 = VECTOR ( 'NONE', #228, 1000.000000000000000 ) ;
#90 = DIRECTION ( 'NONE',  ( -0.0000000000000000000, 3.061515884555943146E-16, -1.000000000000000000 ) ) ;
#91 =( NAMED_UNIT ( * ) PLANE_ANGLE_UNIT ( ) SI_UNIT ( $, .RADIAN. ) );
#92 = VERTEX_POINT ( 'NONE', #100 ) ;
#93 = APPLICATION_CONTEXT ( 'configuration controlled 3d designs of mechanical parts and assemblies' ) ;
#94 = DIRECTION ( 'NONE',  ( 0.0000000000000000000, 0.0000000000000000000, 1.000000000000000000 ) ) ;
#95 = VERTEX_POINT ( 'NONE', #159 ) ;
#96 = VECTOR ( 'NONE', #261, 1000.000000000000000 ) ;
#97 = EDGE_CURVE ( 'NONE', #161, #99, #198, .T. ) ;
#98 = EDGE_CURVE ( 'NONE', #31, #161, #269, .T. ) ;
#99 = VERTEX_POINT ( 'NONE', #66 ) ;
#100 = CARTESIAN_POINT ( 'NONE',  ( 0.0000000000000000000, -6.149999999999996803, -1.489999999999983560 ) ) ;
#101 = CC_DESIGN_PERSON_AND_ORGANIZATION_ASSIGNMENT ( #237, #167, ( #197 ) ) ;
#102 = DIRECTION ( 'NONE',  ( -0.0000000000000000000, 3.061515884555943146E-16, -1.000000000000000000 ) ) ;
#103 = CARTESIAN_POINT ( 'NONE',  ( 0.0000000000000000000, 1.134374536716639134E-15, -1.289999999999991376 ) ) ;
#104 = AXIS2_PLACEMENT_3D ( 'NONE', #176, #157, #152 ) ;
#105 = ADVANCED_FACE ( 'NONE', ( #34 ), #203, .T. ) ;
#106 = DIRECTION ( 'NONE',  ( -0.0000000000000000000, -1.335063993641108318E-15, -1.000000000000000000 ) ) ;
#107 = CALENDAR_DATE ( 2019, 9, 12 ) ;
#108 = CYLINDRICAL_SURFACE ( 'NONE', #244, 6.349999999999996980 ) ;
#109 = DIRECTION ( 'NONE',  ( -0.0000000000000000000, -1.335063993641108318E-15, -1.000000000000000000 ) ) ;
#110 = CARTESIAN_POINT ( 'NONE',  ( 0.0000000000000000000, -6.349999999999996092, -1.289999999999982938 ) ) ;
#111 = COORDINATED_UNIVERSAL_TIME_OFFSET ( 5, 0, .BEHIND. ) ;
#112 = DIRECTION ( 'NONE',  ( 0.0000000000000000000, -0.7071067811865453523, 0.7071067811865496822 ) ) ;
#113 = DATE_AND_TIME ( #29, #127 ) ;
#114 = APPROVAL_STATUS ( 'not_yet_approved' ) ;
#115 = AXIS2_PLACEMENT_3D ( 'NONE', #32, #289, #285 ) ;
#116 =( LENGTH_UNIT ( ) NAMED_UNIT ( * ) SI_UNIT ( .MILLI., .METRE. ) );
#117 = MANIFOLD_SOLID_BREP ( 'TTN097842-1-solid1', #186 ) ;
#118 = EDGE_LOOP ( 'NONE', ( #87, #214, #13, #140 ) ) ;
#119 = CONICAL_SURFACE ( 'NONE', #22, 6.349999999999996980, 0.7853981633974466137 ) ;
#120 = APPROVAL ( #114, 'UNSPECIFIED' ) ;
#121 = LINE ( 'NONE', #110, #297 ) ;
#122 = CIRCLE ( 'NONE', #40, 6.149999999999995914 ) ;
#123 = ORIENTED_EDGE ( 'NONE', *, *, #209, .F. ) ;
#124 = CARTESIAN_POINT ( 'NONE',  ( 7.531577814756217134E-16, -6.149999999999992362, 0.5711108043269135237 ) ) ;
#125 = FACE_OUTER_BOUND ( 'NONE', #248, .T. ) ;
#126 = DIRECTION ( 'NONE',  ( 0.0000000000000000000, 1.000000000000000000, -1.331775896911329379E-15 ) ) ;
#127 = LOCAL_TIME ( 15, 51, 24.00000000000000000, #225 ) ;
#128 = CC_DESIGN_PERSON_AND_ORGANIZATION_ASSIGNMENT ( #301, #296, ( #256 ) ) ;
#129 = APPROVAL_DATE_TIME ( #158, #59 ) ;
#130 = DIRECTION ( 'NONE',  ( -0.0000000000000000000, -1.335063993641108318E-15, -1.000000000000000000 ) ) ;
#131 = ADVANCED_FACE ( 'NONE', ( #147 ), #14, .T. ) ;
#132 = ORIENTED_EDGE ( 'NONE', *, *, #193, .T. ) ;
#133 = CARTESIAN_POINT ( 'NONE',  ( 0.0000000000000000000, 2.269195573632860942E-15, -19.55000000000017835 ) ) ;
#134 = ORIENTED_EDGE ( 'NONE', *, *, #281, .F. ) ;
#135 = CARTESIAN_POINT ( 'NONE',  ( 0.0000000000000000000, 6.149999999999999467, 0.5711108043268970924 ) ) ;
#136 = CARTESIAN_POINT ( 'NONE',  ( 7.654042494670953662E-16, 6.149999999999998579, -1.489999999999999991 ) ) ;
#137 = PERSON_AND_ORGANIZATION ( #25, #75 ) ;
#138 = DIRECTION ( 'NONE',  ( 0.0000000000000000000, 1.000000000000000000, -1.339827074941436795E-15 ) ) ;
#139 = ORIENTED_EDGE ( 'NONE', *, *, #82, .T. ) ;
#140 = ORIENTED_EDGE ( 'NONE', *, *, #48, .F. ) ;
#141 = CC_DESIGN_APPROVAL ( #120, ( #2 ) ) ;
#142 = CARTESIAN_POINT ( 'NONE',  ( 0.0000000000000000000, 0.0000000000000000000, 0.0000000000000000000 ) ) ;
#143 =( NAMED_UNIT ( * ) SI_UNIT ( $, .STERADIAN. ) SOLID_ANGLE_UNIT ( ) );
#144 = AXIS2_PLACEMENT_3D ( 'NONE', #84, #109, #163 ) ;
#145 = ORIENTED_EDGE ( 'NONE', *, *, #16, .T. ) ;
#146 = EDGE_CURVE ( 'NONE', #31, #172, #273, .T. ) ;
#147 = FACE_OUTER_BOUND ( 'NONE', #201, .T. ) ;
#148 = FACE_OUTER_BOUND ( 'NONE', #4, .T. ) ;
#149 = ORIENTED_EDGE ( 'NONE', *, *, #74, .T. ) ;
#150 = CIRCLE ( 'NONE', #104, 21.04000000000018389 ) ;
#151 = CARTESIAN_POINT ( 'NONE',  ( 0.0000000000000000000, 3.352063761021699902E-15, 0.3711108043269056855 ) ) ;
#152 = DIRECTION ( 'NONE',  ( 0.0000000000000000000, 0.0000000000000000000, 1.000000000000000000 ) ) ;
#153 = APPROVAL_PERSON_ORGANIZATION ( #271, #169, #272 ) ;
#154 = ORIENTED_EDGE ( 'NONE', *, *, #36, .T. ) ;
#155 = DIRECTION ( 'NONE',  ( 1.000000000000000000, 1.224646799147353207E-16, 3.749275628560213616E-32 ) ) ;
#156 = CC_DESIGN_PERSON_AND_ORGANIZATION_ASSIGNMENT ( #210, #188, ( #2 ) ) ;
#157 = DIRECTION ( 'NONE',  ( -1.000000000000000000, 0.0000000000000000000, 0.0000000000000000000 ) ) ;
#158 = DATE_AND_TIME ( #215, #216 ) ;
#159 = CARTESIAN_POINT ( 'NONE',  ( 0.0000000000000000000, 6.349999999999997868, -1.289999999999999813 ) ) ;
#160 = DIRECTION ( 'NONE',  ( 0.0000000000000000000, 1.000000000000000000, 3.061515884555943146E-16 ) ) ;
#161 = VERTEX_POINT ( 'NONE', #88 ) ;
#162 = CONICAL_SURFACE ( 'NONE', #238, 6.349999999999996980, 0.7853981633974466137 ) ;
#163 = DIRECTION ( 'NONE',  ( 0.0000000000000000000, 1.000000000000000000, -1.339827074941437190E-15 ) ) ;
#164 = DIRECTION ( 'NONE',  ( 0.0000000000000000000, 1.000000000000000000, 3.297953376381733815E-16 ) ) ;
#165 = LOCAL_TIME ( 15, 51, 24.00000000000000000, #11 ) ;
#166 = DIRECTION ( 'NONE',  ( 0.0000000000000000000, -1.000000000000000000, 1.331775896911328985E-15 ) ) ;
#167 = PERSON_AND_ORGANIZATION_ROLE ( 'creator' ) ;
#168 = APPROVAL_DATE_TIME ( #78, #120 ) ;
#169 = APPROVAL ( #70, 'UNSPECIFIED' ) ;
#170 = PERSON_AND_ORGANIZATION_ROLE ( 'design_supplier' ) ;
#171 = COORDINATED_UNIVERSAL_TIME_OFFSET ( 5, 0, .BEHIND. ) ;
#172 = VERTEX_POINT ( 'NONE', #135 ) ;
#173 = VECTOR ( 'NONE', #102, 1000.000000000000000 ) ;
#174 = LOCAL_TIME ( 15, 51, 24.00000000000000000, #254 ) ;
#175 = CC_DESIGN_DATE_AND_TIME_ASSIGNMENT ( #113, #250, ( #197 ) ) ;
#176 = CARTESIAN_POINT ( 'NONE',  ( 0.0000000000000000000, 2.269195573632860942E-15, -19.55000000000017835 ) ) ;
#177 = ORIENTED_EDGE ( 'NONE', *, *, #36, .F. ) ;
#178 = EDGE_LOOP ( 'NONE', ( #8, #181, #41, #177 ) ) ;
#179 = DIRECTION ( 'NONE',  ( 0.0000000000000000000, -1.000000000000000000, 1.331775896911328985E-15 ) ) ;
#180 = ADVANCED_FACE ( 'NONE', ( #125 ), #187, .T. ) ;
#181 = ORIENTED_EDGE ( 'NONE', *, *, #146, .T. ) ;
#182 = CARTESIAN_POINT ( 'NONE',  ( 0.0000000000000000000, 2.269195573632860942E-15, -19.55000000000017835 ) ) ;
#183 = ADVANCED_FACE ( 'NONE', ( #148 ), #119, .T. ) ;
#184 = DIRECTION ( 'NONE',  ( 0.0000000000000000000, 1.000000000000000000, -1.339827074941436795E-15 ) ) ;
#185 = DIRECTION ( 'NONE',  ( 0.0000000000000000000, 1.000000000000000000, 3.297953376381733815E-16 ) ) ;
#186 = CLOSED_SHELL ( 'NONE', ( #264, #202, #183, #283, #131, #30, #180, #227, #105 ) ) ;
#187 = PLANE ( 'NONE',  #6 ) ;
#188 = PERSON_AND_ORGANIZATION_ROLE ( 'creator' ) ;
#189 = PERSON_AND_ORGANIZATION ( #25, #75 ) ;
#190 = CC_DESIGN_PERSON_AND_ORGANIZATION_ASSIGNMENT ( #46, #195, ( #279 ) ) ;
#191 = SECURITY_CLASSIFICATION_LEVEL ( 'unclassified' ) ;
#192 = CONICAL_SURFACE ( 'NONE', #144, 6.149999999999995914, 0.7853981633974461696 ) ;
#193 = EDGE_CURVE ( 'NONE', #95, #99, #20, .T. ) ;
#194 = APPROVAL_STATUS ( 'not_yet_approved' ) ;
#195 = PERSON_AND_ORGANIZATION_ROLE ( 'design_owner' ) ;
#196 = VERTEX_POINT ( 'NONE', #10 ) ;
#197 = PRODUCT_DEFINITION ( 'UNKNOWN', '', #2, #221 ) ;
#198 = LINE ( 'NONE', #76, #173 ) ;
#199 = CIRCLE ( 'NONE', #251, 6.349999999999996980 ) ;
#200 = CARTESIAN_POINT ( 'NONE',  ( 7.776507174585690191E-16, 6.349999999999997868, -1.289999999999999813 ) ) ;
#201 = EDGE_LOOP ( 'NONE', ( #239, #154, #235, #299 ) ) ;
#202 = ADVANCED_FACE ( 'NONE', ( #69 ), #236, .T. ) ;
#203 = SPHERICAL_SURFACE ( 'NONE', #258, 21.04000000000018389 ) ;
#204 = CARTESIAN_POINT ( 'NONE',  ( 0.0000000000000000000, 2.269195573632860942E-15, -19.55000000000017835 ) ) ;
#205 = DIRECTION ( 'NONE',  ( -0.0000000000000000000, -1.335063993641108318E-15, -1.000000000000000000 ) ) ;
#206 = EDGE_CURVE ( 'NONE', #92, #99, #121, .T. ) ;
#207 = CIRCLE ( 'NONE', #234, 21.04000000000018389 ) ;
#208 = DIRECTION ( 'NONE',  ( -0.0000000000000000000, 3.061515884555943146E-16, -1.000000000000000000 ) ) ;
#209 = EDGE_CURVE ( 'NONE', #196, #95, #83, .T. ) ;
#210 = PERSON_AND_ORGANIZATION ( #25, #75 ) ;
#211 = AXIS2_PLACEMENT_3D ( 'NONE', #151, #24, #126 ) ;
#212 = DATE_TIME_ROLE ( 'classification_date' ) ;
#213 = ORIENTED_EDGE ( 'NONE', *, *, #97, .T. ) ;
#214 = ORIENTED_EDGE ( 'NONE', *, *, #98, .T. ) ;
#215 = CALENDAR_DATE ( 2019, 9, 12 ) ;
#216 = LOCAL_TIME ( 15, 51, 24.00000000000000000, #111 ) ;
#217 = CALENDAR_DATE ( 2019, 9, 12 ) ;
#218 = DIRECTION ( 'NONE',  ( -1.224646799147353207E-16, 1.000000000000000000, 0.0000000000000000000 ) ) ;
#219 = EDGE_LOOP ( 'NONE', ( #295, #247, #253 ) ) ;
#220 = CARTESIAN_POINT ( 'NONE',  ( 0.0000000000000000000, 1.134374536716639134E-15, -1.289999999999991376 ) ) ;
#221 = DESIGN_CONTEXT ( 'detailed design', #93, 'design' ) ;
#222 = CIRCLE ( 'NONE', #211, 6.349999999999994316 ) ;
#223 = DIRECTION ( 'NONE',  ( 1.000000000000000000, 0.0000000000000000000, -0.0000000000000000000 ) ) ;
#224 = DIRECTION ( 'NONE',  ( 1.000000000000000000, 0.0000000000000000000, -0.0000000000000000000 ) ) ;
#225 = COORDINATED_UNIVERSAL_TIME_OFFSET ( 5, 0, .BEHIND. ) ;
#226 = CARTESIAN_POINT ( 'NONE',  ( 0.0000000000000000000, 1.134374536716639134E-15, -1.289999999999991376 ) ) ;
#227 = ADVANCED_FACE ( 'NONE', ( #262 ), #192, .T. ) ;
#228 = DIRECTION ( 'NONE',  ( 8.659560562354914369E-17, -0.7071067811865470176, -0.7071067811865480168 ) ) ;
#229 = EDGE_CURVE ( 'NONE', #172, #31, #122, .T. ) ;
#230 = CC_DESIGN_PERSON_AND_ORGANIZATION_ASSIGNMENT ( #137, #170, ( #2 ) ) ;
#231 = FACE_OUTER_BOUND ( 'NONE', #275, .T. ) ;
#232 = APPROVAL_PERSON_ORGANIZATION ( #189, #120, #15 ) ;
#233 = CARTESIAN_POINT ( 'NONE',  ( 0.0000000000000000000, 6.049555387882544168E-16, -1.489999999999999991 ) ) ;
#234 = AXIS2_PLACEMENT_3D ( 'NONE', #204, #155, #218 ) ;
#235 = ORIENTED_EDGE ( 'NONE', *, *, #209, .T. ) ;
#236 = CONICAL_SURFACE ( 'NONE', #1, 6.149999999999995914, 0.7853981633974461696 ) ;
#237 = PERSON_AND_ORGANIZATION ( #25, #75 ) ;
#238 = AXIS2_PLACEMENT_3D ( 'NONE', #103, #260, #179 ) ;
#239 = ORIENTED_EDGE ( 'NONE', *, *, #97, .F. ) ;
#240 = DIRECTION ( 'NONE',  ( 8.659560562354919300E-17, 0.7071067811865473507, 0.7071067811865477948 ) ) ;
#241 = DIRECTION ( 'NONE',  ( 0.0000000000000000000, 1.000000000000000000, -1.331775896911328985E-15 ) ) ;
#242 = SHAPE_DEFINITION_REPRESENTATION ( #44, #27 ) ;
#243 = VERTEX_POINT ( 'NONE', #9 ) ;
#244 = AXIS2_PLACEMENT_3D ( 'NONE', #233, #90, #17 ) ;
#245 = DIRECTION ( 'NONE',  ( -0.0000000000000000000, -1.335063993641108318E-15, -1.000000000000000000 ) ) ;
#246 = CIRCLE ( 'NONE', #85, 6.149999999999997691 ) ;
#247 = ORIENTED_EDGE ( 'NONE', *, *, #21, .T. ) ;
#248 = EDGE_LOOP ( 'NONE', ( #37, #73 ) ) ;
#249 = APPLICATION_CONTEXT ( 'configuration controlled 3d designs of mechanical parts and assemblies' ) ;
#250 = DATE_TIME_ROLE ( 'creation_date' ) ;
#251 = AXIS2_PLACEMENT_3D ( 'NONE', #220, #53, #241 ) ;
#252 = APPLICATION_PROTOCOL_DEFINITION ( 'international standard', 'config_control_design', 1994, #93 ) ;
#253 = ORIENTED_EDGE ( 'NONE', *, *, #229, .F. ) ;
#254 = COORDINATED_UNIVERSAL_TIME_OFFSET ( 5, 0, .BEHIND. ) ;
#255 = VERTEX_POINT ( 'NONE', #136 ) ;
#256 = SECURITY_CLASSIFICATION ( '', '', #191 ) ;
#257 = EDGE_CURVE ( 'NONE', #255, #92, #50, .T. ) ;
#258 = AXIS2_PLACEMENT_3D ( 'NONE', #133, #224, #164 ) ;
#259 = DIRECTION ( 'NONE',  ( 0.0000000000000000000, 1.000000000000000000, -1.331775896911329379E-15 ) ) ;
#260 = DIRECTION ( 'NONE',  ( 0.0000000000000000000, 1.335063993641108318E-15, 1.000000000000000000 ) ) ;
#261 = DIRECTION ( 'NONE',  ( 0.0000000000000000000, 0.7071067811865450192, -0.7071067811865500152 ) ) ;
#262 = FACE_OUTER_BOUND ( 'NONE', #178, .T. ) ;
#263 = CALENDAR_DATE ( 2019, 9, 12 ) ;
#264 = ADVANCED_FACE ( 'NONE', ( #65 ), #54, .T. ) ;
#265 = AXIS2_PLACEMENT_3D ( 'NONE', #79, #245, #259 ) ;
#266 = ORIENTED_EDGE ( 'NONE', *, *, #193, .F. ) ;
#267 = VECTOR ( 'NONE', #240, 999.9999999999998863 ) ;
#268 = CARTESIAN_POINT ( 'NONE',  ( 0.0000000000000000000, 3.619076559749921092E-15, 0.5711108043269053081 ) ) ;
#269 = LINE ( 'NONE', #124, #89 ) ;
#270 = CC_DESIGN_DATE_AND_TIME_ASSIGNMENT ( #277, #212, ( #256 ) ) ;
#271 = PERSON_AND_ORGANIZATION ( #25, #75 ) ;
#272 = APPROVAL_ROLE ( '' ) ;
#273 = CIRCLE ( 'NONE', #115, 6.149999999999995914 ) ;
#274 = AXIS2_PLACEMENT_3D ( 'NONE', #49, #86, #35 ) ;
#275 = EDGE_LOOP ( 'NONE', ( #61, #213, #266, #123 ) ) ;
#276 = VECTOR ( 'NONE', #208, 1000.000000000000000 ) ;
#277 = DATE_AND_TIME ( #107, #165 ) ;
#278 = ORIENTED_EDGE ( 'NONE', *, *, #21, .F. ) ;
#279 = PRODUCT ( 'TTN097749-E0W', 'TTN097749-E0W', '', ( #292 ) ) ;
#280 = LINE ( 'NONE', #77, #96 ) ;
#281 = EDGE_CURVE ( 'NONE', #92, #255, #246, .T. ) ;
#282 = APPROVAL_DATE_TIME ( #42, #169 ) ;
#283 = ADVANCED_FACE ( 'NONE', ( #231 ), #108, .T. ) ;
#284 = CC_DESIGN_APPROVAL ( #169, ( #256 ) ) ;
#285 = DIRECTION ( 'NONE',  ( 0.0000000000000000000, 1.000000000000000000, -1.339827074941437190E-15 ) ) ;
#286 = PERSON_AND_ORGANIZATION ( #25, #75 ) ;
#287 = CARTESIAN_POINT ( 'NONE',  ( 0.0000000000000000000, 8.673617379884170564E-16, -1.489999999999991775 ) ) ;
#288 = DIRECTION ( 'NONE',  ( 0.0000000000000000000, 1.335063993641108318E-15, 1.000000000000000000 ) ) ;
#289 = DIRECTION ( 'NONE',  ( -0.0000000000000000000, -1.335063993641108318E-15, -1.000000000000000000 ) ) ;
#290 = EDGE_LOOP ( 'NONE', ( #67, #134, #71, #139 ) ) ;
#291 = DIRECTION ( 'NONE',  ( 0.0000000000000000000, 1.000000000000000000, -1.339827074941437190E-15 ) ) ;
#292 = MECHANICAL_CONTEXT ( 'NONE', #249, 'mechanical' ) ;
#293 = APPLICATION_PROTOCOL_DEFINITION ( 'international standard', 'config_control_design', 1994, #249 ) ;
#294 = EDGE_LOOP ( 'NONE', ( #278, #145, #19 ) ) ;
#295 = ORIENTED_EDGE ( 'NONE', *, *, #16, .F. ) ;
#296 = PERSON_AND_ORGANIZATION_ROLE ( 'classification_officer' ) ;
#297 = VECTOR ( 'NONE', #112, 1000.000000000000000 ) ;
#298 = DIRECTION ( 'NONE',  ( -0.0000000000000000000, -1.335063993641108318E-15, -1.000000000000000000 ) ) ;
#299 = ORIENTED_EDGE ( 'NONE', *, *, #82, .F. ) ;
#300 = FACE_OUTER_BOUND ( 'NONE', #290, .T. ) ;
#301 = PERSON_AND_ORGANIZATION ( #25, #75 ) ;
ENDSEC;
END-ISO-10303-21;
