ISO-10303-21;
HEADER;
FILE_DESCRIPTION (( 'STEP AP203' ),
    '1' );
FILE_NAME ('Web Model 64379.STEP',
    '2017-01-31T19:06:21',
    ( '' ),
    ( '' ),
    'SwSTEP 2.0',
    'SolidWorks 2016',
    '' );
FILE_SCHEMA (( 'CONFIG_CONTROL_DESIGN' ));
ENDSEC;

DATA;
#1 = APPLICATION_PROTOCOL_DEFINITION ( 'international standard', 'config_control_design', 1994, #33 ) ;
#2 = EDGE_CURVE ( 'NONE', #32, #122, #166, .T. ) ;
#3 = CYLINDRICAL_SURFACE ( 'NONE', #128, 20.00000000000000000 ) ;
#4 = APPROVAL_PERSON_ORGANIZATION ( #48, #38, #162 ) ;
#5 = AXIS2_PLACEMENT_3D ( 'NONE', #30, #7, #167 ) ;
#6 = UNCERTAINTY_MEASURE_WITH_UNIT (LENGTH_MEASURE( 1.000000000000000100E-005 ), #111, 'distance_accuracy_value', 'NONE');
#7 = DIRECTION ( 'NONE',  ( -0.0000000000000000000, -0.0000000000000000000, -1.000000000000000000 ) ) ;
#8 = CYLINDRICAL_SURFACE ( 'NONE', #5, 20.00000000000000000 ) ;
#9 = DATE_AND_TIME ( #95, #118 ) ;
#10 = DATE_AND_TIME ( #120, #79 ) ;
#11 = APPROVAL_PERSON_ORGANIZATION ( #73, #83, #59 ) ;
#12 = CARTESIAN_POINT ( 'NONE',  ( 0.0000000000000000000, 0.0000000000000000000, 0.0000000000000000000 ) ) ;
#13 = EDGE_CURVE ( 'NONE', #40, #58, #39, .T. ) ;
#14 = VECTOR ( 'NONE', #153, 1000.000000000000000 ) ;
#15 = CARTESIAN_POINT ( 'NONE',  ( 0.0000000000000000000, 0.0000000000000000000, 4.000000000000000000 ) ) ;
#16 = ORIENTED_EDGE ( 'NONE', *, *, #2, .T. ) ;
#17 = MANIFOLD_SOLID_BREP ( 'Extrude1', #143 ) ;
#18 = SECURITY_CLASSIFICATION_LEVEL ( 'unclassified' ) ;
#19 = ORGANIZATION ( 'UNSPECIFIED', 'UNSPECIFIED', '' ) ;
#20 = CC_DESIGN_APPROVAL ( #38, ( #141 ) ) ;
#21 = CARTESIAN_POINT ( 'NONE',  ( 0.0000000000000000000, 0.0000000000000000000, 4.000000000000000000 ) ) ;
#22 = PERSON_AND_ORGANIZATION ( #43, #19 ) ;
#23 = DIRECTION ( 'NONE',  ( 0.0000000000000000000, 0.0000000000000000000, 1.000000000000000000 ) ) ;
#24 = DIRECTION ( 'NONE',  ( 1.000000000000000000, 0.0000000000000000000, -0.0000000000000000000 ) ) ;
#25 = EDGE_LOOP ( 'NONE', ( #99, #47, #94, #90 ) ) ;
#26 = COORDINATED_UNIVERSAL_TIME_OFFSET ( 5, 0, .BEHIND. ) ;
#27 = ORIENTED_EDGE ( 'NONE', *, *, #80, .F. ) ;
#28 = CC_DESIGN_SECURITY_CLASSIFICATION ( #141, ( #156 ) ) ;
#29 = PERSON_AND_ORGANIZATION ( #43, #19 ) ;
#30 = CARTESIAN_POINT ( 'NONE',  ( 0.0000000000000000000, 0.0000000000000000000, 4.000000000000000000 ) ) ;
#31 = DIRECTION ( 'NONE',  ( -0.0000000000000000000, -0.0000000000000000000, -1.000000000000000000 ) ) ;
#32 = VERTEX_POINT ( 'NONE', #75 ) ;
#33 = APPLICATION_CONTEXT ( 'configuration controlled 3d designs of mechanical parts and assemblies' ) ;
#34 = DIRECTION ( 'NONE',  ( 0.0000000000000000000, 0.0000000000000000000, 1.000000000000000000 ) ) ;
#35 = COORDINATED_UNIVERSAL_TIME_OFFSET ( 5, 0, .BEHIND. ) ;
#36 =( NAMED_UNIT ( * ) SI_UNIT ( $, .STERADIAN. ) SOLID_ANGLE_UNIT ( ) );
#37 = CIRCLE ( 'NONE', #44, 20.00000000000000000 ) ;
#38 = APPROVAL ( #64, 'UNSPECIFIED' ) ;
#39 = LINE ( 'NONE', #52, #131 ) ;
#40 = VERTEX_POINT ( 'NONE', #76 ) ;
#41 = DIRECTION ( 'NONE',  ( 0.0000000000000000000, 0.0000000000000000000, 1.000000000000000000 ) ) ;
#42 = LOCAL_TIME ( 14, 6, 21.00000000000000000, #26 ) ;
#43 = PERSON ( 'UNSPECIFIED', 'UNSPECIFIED', 'UNSPECIFIED', ('UNSPECIFIED'), ('UNSPECIFIED'), ('UNSPECIFIED') ) ;
#44 = AXIS2_PLACEMENT_3D ( 'NONE', #12, #126, #169 ) ;
#45 = PLANE ( 'NONE',  #71 ) ;
#46 = DATE_AND_TIME ( #86, #92 ) ;
#47 = ORIENTED_EDGE ( 'NONE', *, *, #170, .F. ) ;
#48 = PERSON_AND_ORGANIZATION ( #43, #19 ) ;
#49 = CC_DESIGN_PERSON_AND_ORGANIZATION_ASSIGNMENT ( #29, #139, ( #156 ) ) ;
#50 = DATE_TIME_ROLE ( 'classification_date' ) ;
#51 = LOCAL_TIME ( 14, 6, 21.00000000000000000, #89 ) ;
#52 = CARTESIAN_POINT ( 'NONE',  ( -20.00000000000000000, 0.0000000000000000000, 4.000000000000000000 ) ) ;
#53 = ORIENTED_EDGE ( 'NONE', *, *, #134, .F. ) ;
#54 = APPROVAL ( #158, 'UNSPECIFIED' ) ;
#55 = PRODUCT_RELATED_PRODUCT_CATEGORY ( 'detail', '', ( #140 ) ) ;
#56 = PERSON_AND_ORGANIZATION_ROLE ( 'design_owner' ) ;
#57 = DATE_AND_TIME ( #154, #51 ) ;
#58 = VERTEX_POINT ( 'NONE', #65 ) ;
#59 = APPROVAL_ROLE ( '' ) ;
#60 = APPROVAL_STATUS ( 'not_yet_approved' ) ;
#61 = CIRCLE ( 'NONE', #105, 20.00000000000000000 ) ;
#62 = AXIS2_PLACEMENT_3D ( 'NONE', #107, #41, #77 ) ;
#63 = CC_DESIGN_PERSON_AND_ORGANIZATION_ASSIGNMENT ( #110, #160, ( #156 ) ) ;
#64 = APPROVAL_STATUS ( 'not_yet_approved' ) ;
#65 = CARTESIAN_POINT ( 'NONE',  ( -20.00000000000000000, 0.0000000000000000000, 0.0000000000000000000 ) ) ;
#66 = CC_DESIGN_PERSON_AND_ORGANIZATION_ASSIGNMENT ( #117, #56, ( #140 ) ) ;
#67 = CARTESIAN_POINT ( 'NONE',  ( 0.0000000000000000000, 0.0000000000000000000, 4.000000000000000000 ) ) ;
#68 = DATE_AND_TIME ( #106, #42 ) ;
#69 = CC_DESIGN_PERSON_AND_ORGANIZATION_ASSIGNMENT ( #129, #164, ( #74 ) ) ;
#70 = ORIENTED_EDGE ( 'NONE', *, *, #13, .F. ) ;
#71 = AXIS2_PLACEMENT_3D ( 'NONE', #132, #115, #24 ) ;
#72 = ADVANCED_FACE ( 'NONE', ( #147 ), #8, .T. ) ;
#73 = PERSON_AND_ORGANIZATION ( #43, #19 ) ;
#74 = PRODUCT_DEFINITION ( 'UNKNOWN', '', #156, #149 ) ;
#75 = CARTESIAN_POINT ( 'NONE',  ( 20.00000000000000000, 2.449293598294706500E-015, 4.000000000000000000 ) ) ;
#76 = CARTESIAN_POINT ( 'NONE',  ( -20.00000000000000000, 0.0000000000000000000, 4.000000000000000000 ) ) ;
#77 = DIRECTION ( 'NONE',  ( 1.000000000000000000, 0.0000000000000000000, 0.0000000000000000000 ) ) ;
#78 = AXIS2_PLACEMENT_3D ( 'NONE', #97, #81, #130 ) ;
#79 = LOCAL_TIME ( 14, 6, 21.00000000000000000, #173 ) ;
#80 = EDGE_CURVE ( 'NONE', #122, #58, #155, .T. ) ;
#81 = DIRECTION ( 'NONE',  ( 0.0000000000000000000, 0.0000000000000000000, 1.000000000000000000 ) ) ;
#82 = PERSON_AND_ORGANIZATION ( #43, #19 ) ;
#83 = APPROVAL ( #60, 'UNSPECIFIED' ) ;
#84 = ORIENTED_EDGE ( 'NONE', *, *, #170, .T. ) ;
#85 = CARTESIAN_POINT ( 'NONE',  ( 0.0000000000000000000, 0.0000000000000000000, 0.0000000000000000000 ) ) ;
#86 = CALENDAR_DATE ( 2017, 31, 1 ) ;
#87 = DIRECTION ( 'NONE',  ( 0.0000000000000000000, 0.0000000000000000000, 1.000000000000000000 ) ) ;
#88 = ADVANCED_FACE ( 'NONE', ( #150 ), #3, .T. ) ;
#89 = COORDINATED_UNIVERSAL_TIME_OFFSET ( 5, 0, .BEHIND. ) ;
#90 = ORIENTED_EDGE ( 'NONE', *, *, #134, .T. ) ;
#91 = APPROVAL_DATE_TIME ( #9, #38 ) ;
#92 = LOCAL_TIME ( 14, 6, 21.00000000000000000, #35 ) ;
#93 = CC_DESIGN_APPROVAL ( #83, ( #74 ) ) ;
#94 = ORIENTED_EDGE ( 'NONE', *, *, #13, .T. ) ;
#95 = CALENDAR_DATE ( 2017, 31, 1 ) ;
#96 = FACE_OUTER_BOUND ( 'NONE', #138, .T. ) ;
#97 = CARTESIAN_POINT ( 'NONE',  ( 0.0000000000000000000, 0.0000000000000000000, 0.0000000000000000000 ) ) ;
#98 = PRODUCT_DEFINITION_SHAPE ( 'NONE', 'NONE',  #74 ) ;
#99 = ORIENTED_EDGE ( 'NONE', *, *, #2, .F. ) ;
#100 = DIRECTION ( 'NONE',  ( 1.000000000000000000, 0.0000000000000000000, 0.0000000000000000000 ) ) ;
#101 =( GEOMETRIC_REPRESENTATION_CONTEXT ( 3 ) GLOBAL_UNCERTAINTY_ASSIGNED_CONTEXT ( ( #6 ) ) GLOBAL_UNIT_ASSIGNED_CONTEXT ( ( #111, #114, #36 ) ) REPRESENTATION_CONTEXT ( 'NONE', 'WORKASPACE' ) );
#102 = DIRECTION ( 'NONE',  ( 1.000000000000000000, 0.0000000000000000000, 0.0000000000000000000 ) ) ;
#103 = CC_DESIGN_DATE_AND_TIME_ASSIGNMENT ( #57, #119, ( #74 ) ) ;
#104 = FACE_OUTER_BOUND ( 'NONE', #148, .T. ) ;
#105 = AXIS2_PLACEMENT_3D ( 'NONE', #15, #34, #100 ) ;
#106 = CALENDAR_DATE ( 2017, 31, 1 ) ;
#107 = CARTESIAN_POINT ( 'NONE',  ( 0.0000000000000000000, 0.0000000000000000000, 0.0000000000000000000 ) ) ;
#108 = CIRCLE ( 'NONE', #124, 20.00000000000000000 ) ;
#109 = CARTESIAN_POINT ( 'NONE',  ( 20.00000000000000000, 2.449293598294706500E-015, 4.000000000000000000 ) ) ;
#110 = PERSON_AND_ORGANIZATION ( #43, #19 ) ;
#111 =( LENGTH_UNIT ( ) NAMED_UNIT ( * ) SI_UNIT ( .MILLI., .METRE. ) );
#112 = DIRECTION ( 'NONE',  ( 1.000000000000000000, 0.0000000000000000000, 0.0000000000000000000 ) ) ;
#113 = EDGE_LOOP ( 'NONE', ( #136, #16, #125, #70 ) ) ;
#114 =( NAMED_UNIT ( * ) PLANE_ANGLE_UNIT ( ) SI_UNIT ( $, .RADIAN. ) );
#115 = DIRECTION ( 'NONE',  ( 0.0000000000000000000, 0.0000000000000000000, 1.000000000000000000 ) ) ;
#116 = APPLICATION_PROTOCOL_DEFINITION ( 'international standard', 'config_control_design', 1994, #145 ) ;
#117 = PERSON_AND_ORGANIZATION ( #43, #19 ) ;
#118 = LOCAL_TIME ( 14, 6, 21.00000000000000000, #135 ) ;
#119 = DATE_TIME_ROLE ( 'creation_date' ) ;
#120 = CALENDAR_DATE ( 2017, 31, 1 ) ;
#121 = SHAPE_DEFINITION_REPRESENTATION ( #98, #137 ) ;
#122 = VERTEX_POINT ( 'NONE', #168 ) ;
#123 = DIRECTION ( 'NONE',  ( -1.000000000000000000, 0.0000000000000000000, 0.0000000000000000000 ) ) ;
#124 = AXIS2_PLACEMENT_3D ( 'NONE', #21, #23, #112 ) ;
#125 = ORIENTED_EDGE ( 'NONE', *, *, #80, .T. ) ;
#126 = DIRECTION ( 'NONE',  ( 0.0000000000000000000, 0.0000000000000000000, 1.000000000000000000 ) ) ;
#127 = PLANE ( 'NONE',  #78 ) ;
#128 = AXIS2_PLACEMENT_3D ( 'NONE', #67, #31, #123 ) ;
#129 = PERSON_AND_ORGANIZATION ( #43, #19 ) ;
#130 = DIRECTION ( 'NONE',  ( 1.000000000000000000, 0.0000000000000000000, -0.0000000000000000000 ) ) ;
#131 = VECTOR ( 'NONE', #151, 1000.000000000000000 ) ;
#132 = CARTESIAN_POINT ( 'NONE',  ( 0.0000000000000000000, 0.0000000000000000000, 4.000000000000000000 ) ) ;
#133 = CC_DESIGN_APPROVAL ( #54, ( #156 ) ) ;
#134 = EDGE_CURVE ( 'NONE', #58, #122, #37, .T. ) ;
#135 = COORDINATED_UNIVERSAL_TIME_OFFSET ( 5, 0, .BEHIND. ) ;
#136 = ORIENTED_EDGE ( 'NONE', *, *, #159, .F. ) ;
#137 = ADVANCED_BREP_SHAPE_REPRESENTATION ( 'Web Model 64379', ( #17, #144 ), #101 ) ;
#138 = EDGE_LOOP ( 'NONE', ( #53, #27 ) ) ;
#139 = PERSON_AND_ORGANIZATION_ROLE ( 'creator' ) ;
#140 = PRODUCT ( 'Web Model 64379', 'Web Model 64379', '', ( #171 ) ) ;
#141 = SECURITY_CLASSIFICATION ( '', '', #18 ) ;
#142 = CC_DESIGN_DATE_AND_TIME_ASSIGNMENT ( #46, #50, ( #141 ) ) ;
#143 = CLOSED_SHELL ( 'NONE', ( #72, #88, #172, #163 ) ) ;
#144 = AXIS2_PLACEMENT_3D ( 'NONE', #85, #87, #102 ) ;
#145 = APPLICATION_CONTEXT ( 'configuration controlled 3d designs of mechanical parts and assemblies' ) ;
#146 = APPROVAL_ROLE ( '' ) ;
#147 = FACE_OUTER_BOUND ( 'NONE', #113, .T. ) ;
#148 = EDGE_LOOP ( 'NONE', ( #84, #175 ) ) ;
#149 = DESIGN_CONTEXT ( 'detailed design', #33, 'design' ) ;
#150 = FACE_OUTER_BOUND ( 'NONE', #25, .T. ) ;
#151 = DIRECTION ( 'NONE',  ( -0.0000000000000000000, -0.0000000000000000000, -1.000000000000000000 ) ) ;
#152 = CC_DESIGN_PERSON_AND_ORGANIZATION_ASSIGNMENT ( #82, #174, ( #141 ) ) ;
#153 = DIRECTION ( 'NONE',  ( -0.0000000000000000000, -0.0000000000000000000, -1.000000000000000000 ) ) ;
#154 = CALENDAR_DATE ( 2017, 31, 1 ) ;
#155 = CIRCLE ( 'NONE', #62, 20.00000000000000000 ) ;
#156 = PRODUCT_DEFINITION_FORMATION_WITH_SPECIFIED_SOURCE ( 'ANY', '', #140, .NOT_KNOWN. ) ;
#157 = APPROVAL_DATE_TIME ( #10, #54 ) ;
#158 = APPROVAL_STATUS ( 'not_yet_approved' ) ;
#159 = EDGE_CURVE ( 'NONE', #32, #40, #108, .T. ) ;
#160 = PERSON_AND_ORGANIZATION_ROLE ( 'design_supplier' ) ;
#161 = APPROVAL_PERSON_ORGANIZATION ( #22, #54, #146 ) ;
#162 = APPROVAL_ROLE ( '' ) ;
#163 = ADVANCED_FACE ( 'NONE', ( #96 ), #127, .F. ) ;
#164 = PERSON_AND_ORGANIZATION_ROLE ( 'creator' ) ;
#165 = APPROVAL_DATE_TIME ( #68, #83 ) ;
#166 = LINE ( 'NONE', #109, #14 ) ;
#167 = DIRECTION ( 'NONE',  ( -1.000000000000000000, 0.0000000000000000000, 0.0000000000000000000 ) ) ;
#168 = CARTESIAN_POINT ( 'NONE',  ( 20.00000000000000000, 2.449293598294706500E-015, 0.0000000000000000000 ) ) ;
#169 = DIRECTION ( 'NONE',  ( 1.000000000000000000, 0.0000000000000000000, 0.0000000000000000000 ) ) ;
#170 = EDGE_CURVE ( 'NONE', #40, #32, #61, .T. ) ;
#171 = MECHANICAL_CONTEXT ( 'NONE', #145, 'mechanical' ) ;
#172 = ADVANCED_FACE ( 'NONE', ( #104 ), #45, .T. ) ;
#173 = COORDINATED_UNIVERSAL_TIME_OFFSET ( 5, 0, .BEHIND. ) ;
#174 = PERSON_AND_ORGANIZATION_ROLE ( 'classification_officer' ) ;
#175 = ORIENTED_EDGE ( 'NONE', *, *, #159, .T. ) ;
ENDSEC;
END-ISO-10303-21;
