ISO-10303-21;
HEADER;
FILE_DESCRIPTION (( 'STEP AP203' ),
    '1' );
FILE_NAME ('Web Model 64397MX_15754.step',
    '2020-10-19T15:35:36',
    ( '' ),
    ( '' ),
    'SwSTEP 2.0',
    'SolidWorks 2018',
    '' );
FILE_SCHEMA (( 'CONFIG_CONTROL_DESIGN' ));
ENDSEC;

DATA;
#1 = CALENDAR_DATE ( 2020, 19, 10 ) ;
#2 = CARTESIAN_POINT ( 'NONE',  ( 0.0000000000000000000, 0.0000000000000000000, 3.000000000000000000 ) ) ;
#3 = CC_DESIGN_DATE_AND_TIME_ASSIGNMENT ( #134, #181, ( #100 ) ) ;
#4 = DIRECTION ( 'NONE',  ( 0.0000000000000000000, 0.0000000000000000000, -1.000000000000000000 ) ) ;
#5 = LOCAL_TIME ( 11, 35, 36.00000000000000000, #149 ) ;
#6 = ORIENTED_EDGE ( 'NONE', *, *, #216, .F. ) ;
#7 = CARTESIAN_POINT ( 'NONE',  ( -6.350000000000000533, 6.349999999999998757, -3.000000000000000000 ) ) ;
#8 = VERTEX_POINT ( 'NONE', #97 ) ;
#9 = DATE_AND_TIME ( #1, #162 ) ;
#10 = DIRECTION ( 'NONE',  ( 1.365923996832131609E-16, -1.000000000000000000, 0.0000000000000000000 ) ) ;
#11 = PERSON ( 'UNSPECIFIED', 'UNSPECIFIED', 'UNSPECIFIED', ('UNSPECIFIED'), ('UNSPECIFIED'), ('UNSPECIFIED') ) ;
#12 = PERSON_AND_ORGANIZATION ( #11, #115 ) ;
#13 = DIRECTION ( 'NONE',  ( 1.000000000000000000, 0.0000000000000000000, 0.0000000000000000000 ) ) ;
#14 = PERSON_AND_ORGANIZATION ( #11, #115 ) ;
#15 = ORIENTED_EDGE ( 'NONE', *, *, #90, .T. ) ;
#16 = VECTOR ( 'NONE', #208, 1000.000000000000000 ) ;
#17 = DIRECTION ( 'NONE',  ( -1.000000000000000000, -1.365923996832131609E-16, 0.0000000000000000000 ) ) ;
#18 = DIRECTION ( 'NONE',  ( 0.0000000000000000000, -0.0000000000000000000, 1.000000000000000000 ) ) ;
#19 = FACE_OUTER_BOUND ( 'NONE', #199, .T. ) ;
#20 = EDGE_CURVE ( 'NONE', #217, #233, #92, .T. ) ;
#21 = DIRECTION ( 'NONE',  ( 0.0000000000000000000, 0.0000000000000000000, 1.000000000000000000 ) ) ;
#22 = LINE ( 'NONE', #82, #225 ) ;
#23 = DIRECTION ( 'NONE',  ( 1.000000000000000000, 1.365923996832131609E-16, 0.0000000000000000000 ) ) ;
#24 = DIRECTION ( 'NONE',  ( -0.0000000000000000000, -0.0000000000000000000, -1.000000000000000000 ) ) ;
#25 = SHAPE_DEFINITION_REPRESENTATION ( #213, #124 ) ;
#26 = AXIS2_PLACEMENT_3D ( 'NONE', #177, #51, #13 ) ;
#27 = MANIFOLD_SOLID_BREP ( 'Boss-Extrude1', #108 ) ;
#28 = FACE_OUTER_BOUND ( 'NONE', #187, .T. ) ;
#29 = APPLICATION_PROTOCOL_DEFINITION ( 'international standard', 'config_control_design', 1994, #130 ) ;
#30 = DESIGN_CONTEXT ( 'detailed design', #130, 'design' ) ;
#31 = AXIS2_PLACEMENT_3D ( 'NONE', #226, #10, #23 ) ;
#32 = ORIENTED_EDGE ( 'NONE', *, *, #128, .F. ) ;
#33 = LINE ( 'NONE', #66, #182 ) ;
#34 = ADVANCED_FACE ( 'NONE', ( #109 ), #118, .F. ) ;
#35 = LINE ( 'NONE', #142, #164 ) ;
#36 = VECTOR ( 'NONE', #105, 1000.000000000000000 ) ;
#37 = ADVANCED_FACE ( 'NONE', ( #19 ), #96, .F. ) ;
#38 = COORDINATED_UNIVERSAL_TIME_OFFSET ( 5, 0, .BEHIND. ) ;
#39 = EDGE_CURVE ( 'NONE', #233, #8, #176, .T. ) ;
#40 = CC_DESIGN_PERSON_AND_ORGANIZATION_ASSIGNMENT ( #63, #232, ( #143 ) ) ;
#41 = CARTESIAN_POINT ( 'NONE',  ( 6.349999999999998757, -6.349999999999998757, -3.000000000000000000 ) ) ;
#42 = EDGE_CURVE ( 'NONE', #112, #131, #95, .T. ) ;
#43 = DIRECTION ( 'NONE',  ( 1.000000000000000000, 0.0000000000000000000, -0.0000000000000000000 ) ) ;
#44 = ORIENTED_EDGE ( 'NONE', *, *, #151, .T. ) ;
#45 = ORIENTED_EDGE ( 'NONE', *, *, #20, .T. ) ;
#46 = CARTESIAN_POINT ( 'NONE',  ( -6.350000000000000533, -6.350000000000000533, 3.000000000000000000 ) ) ;
#47 = PLANE ( 'NONE',  #31 ) ;
#48 = DIRECTION ( 'NONE',  ( 0.0000000000000000000, 1.000000000000000000, 0.0000000000000000000 ) ) ;
#49 = APPROVAL_PERSON_ORGANIZATION ( #12, #234, #52 ) ;
#50 = PRODUCT_DEFINITION_FORMATION_WITH_SPECIFIED_SOURCE ( 'ANY', '', #143, .NOT_KNOWN. ) ;
#51 = DIRECTION ( 'NONE',  ( 0.0000000000000000000, 0.0000000000000000000, 1.000000000000000000 ) ) ;
#52 = APPROVAL_ROLE ( '' ) ;
#53 = FACE_OUTER_BOUND ( 'NONE', #106, .T. ) ;
#54 = PERSON_AND_ORGANIZATION_ROLE ( 'classification_officer' ) ;
#55 = CC_DESIGN_SECURITY_CLASSIFICATION ( #163, ( #50 ) ) ;
#56 = CC_DESIGN_APPROVAL ( #73, ( #50 ) ) ;
#57 = VECTOR ( 'NONE', #140, 1000.000000000000000 ) ;
#58 = EDGE_LOOP ( 'NONE', ( #122, #6, #175, #179 ) ) ;
#59 = EDGE_CURVE ( 'NONE', #131, #217, #197, .T. ) ;
#60 = DIRECTION ( 'NONE',  ( 1.000000000000000000, 1.365923996832131609E-16, -0.0000000000000000000 ) ) ;
#61 = DIRECTION ( 'NONE',  ( 1.000000000000000000, 0.0000000000000000000, -0.0000000000000000000 ) ) ;
#62 = CARTESIAN_POINT ( 'NONE',  ( -6.350000000000000533, -6.350000000000000533, -3.000000000000000000 ) ) ;
#63 = PERSON_AND_ORGANIZATION ( #11, #115 ) ;
#64 = DATE_AND_TIME ( #184, #87 ) ;
#65 =( LENGTH_UNIT ( ) NAMED_UNIT ( * ) SI_UNIT ( .MILLI., .METRE. ) );
#66 = CARTESIAN_POINT ( 'NONE',  ( -6.350000000000000533, -6.350000000000000533, 3.000000000000000000 ) ) ;
#67 = APPROVAL_ROLE ( '' ) ;
#68 = LINE ( 'NONE', #120, #103 ) ;
#69 = CC_DESIGN_PERSON_AND_ORGANIZATION_ASSIGNMENT ( #125, #194, ( #50 ) ) ;
#70 = MECHANICAL_CONTEXT ( 'NONE', #165, 'mechanical' ) ;
#71 = ORIENTED_EDGE ( 'NONE', *, *, #178, .T. ) ;
#72 = CC_DESIGN_DATE_AND_TIME_ASSIGNMENT ( #174, #147, ( #163 ) ) ;
#73 = APPROVAL ( #196, 'UNSPECIFIED' ) ;
#74 = ADVANCED_FACE ( 'NONE', ( #75 ), #202, .F. ) ;
#75 = FACE_OUTER_BOUND ( 'NONE', #58, .T. ) ;
#76 = AXIS2_PLACEMENT_3D ( 'NONE', #156, #137, #77 ) ;
#77 = DIRECTION ( 'NONE',  ( -1.000000000000000000, -1.365923996832131609E-16, 0.0000000000000000000 ) ) ;
#78 = ORIENTED_EDGE ( 'NONE', *, *, #216, .T. ) ;
#79 = APPROVAL_PERSON_ORGANIZATION ( #113, #73, #166 ) ;
#80 = CARTESIAN_POINT ( 'NONE',  ( 6.349999999999998757, -6.349999999999998757, 3.000000000000000000 ) ) ;
#81 = LINE ( 'NONE', #86, #123 ) ;
#82 = CARTESIAN_POINT ( 'NONE',  ( 6.349999999999998757, -6.349999999999998757, 3.000000000000000000 ) ) ;
#83 = DIRECTION ( 'NONE',  ( -1.000000000000000000, 0.0000000000000000000, 0.0000000000000000000 ) ) ;
#84 = APPROVAL ( #111, 'UNSPECIFIED' ) ;
#85 = AXIS2_PLACEMENT_3D ( 'NONE', #204, #99, #4 ) ;
#86 = CARTESIAN_POINT ( 'NONE',  ( 6.349999999999998757, 6.350000000000000533, 3.000000000000000000 ) ) ;
#87 = LOCAL_TIME ( 11, 35, 36.00000000000000000, #38 ) ;
#88 = CC_DESIGN_APPROVAL ( #234, ( #100 ) ) ;
#89 = ORIENTED_EDGE ( 'NONE', *, *, #93, .F. ) ;
#90 = EDGE_CURVE ( 'NONE', #168, #112, #68, .T. ) ;
#91 = COORDINATED_UNIVERSAL_TIME_OFFSET ( 5, 0, .BEHIND. ) ;
#92 = LINE ( 'NONE', #101, #230 ) ;
#93 = EDGE_CURVE ( 'NONE', #183, #195, #211, .T. ) ;
#94 = ADVANCED_FACE ( 'NONE', ( #53 ), #102, .T. ) ;
#95 = LINE ( 'NONE', #235, #129 ) ;
#96 = PLANE ( 'NONE',  #136 ) ;
#97 = CARTESIAN_POINT ( 'NONE',  ( 6.349999999999998757, 6.350000000000000533, -3.000000000000000000 ) ) ;
#98 = ORIENTED_EDGE ( 'NONE', *, *, #151, .F. ) ;
#99 = DIRECTION ( 'NONE',  ( 1.000000000000000000, 0.0000000000000000000, 0.0000000000000000000 ) ) ;
#100 = PRODUCT_DEFINITION ( 'UNKNOWN', '', #50, #30 ) ;
#101 = CARTESIAN_POINT ( 'NONE',  ( 6.349999999999998757, -6.349999999999998757, 3.000000000000000000 ) ) ;
#102 = PLANE ( 'NONE',  #209 ) ;
#103 = VECTOR ( 'NONE', #17, 1000.000000000000000 ) ;
#104 = PERSON_AND_ORGANIZATION ( #11, #115 ) ;
#105 = DIRECTION ( 'NONE',  ( -0.0000000000000000000, -0.0000000000000000000, -1.000000000000000000 ) ) ;
#106 = EDGE_LOOP ( 'NONE', ( #171, #148, #44, #15 ) ) ;
#107 = LOCAL_TIME ( 11, 35, 36.00000000000000000, #220 ) ;
#108 = CLOSED_SHELL ( 'NONE', ( #74, #34, #116, #198, #94, #37 ) ) ;
#109 = FACE_OUTER_BOUND ( 'NONE', #223, .T. ) ;
#110 = PERSON_AND_ORGANIZATION_ROLE ( 'design_supplier' ) ;
#111 = APPROVAL_STATUS ( 'not_yet_approved' ) ;
#112 = VERTEX_POINT ( 'NONE', #173 ) ;
#113 = PERSON_AND_ORGANIZATION ( #11, #115 ) ;
#114 = ORIENTED_EDGE ( 'NONE', *, *, #39, .T. ) ;
#115 = ORGANIZATION ( 'UNSPECIFIED', 'UNSPECIFIED', '' ) ;
#116 = ADVANCED_FACE ( 'NONE', ( #141 ), #119, .F. ) ;
#117 = ORIENTED_EDGE ( 'NONE', *, *, #59, .F. ) ;
#118 = PLANE ( 'NONE',  #76 ) ;
#119 = PLANE ( 'NONE',  #193 ) ;
#120 = CARTESIAN_POINT ( 'NONE',  ( 6.349999999999998757, 6.350000000000000533, 3.000000000000000000 ) ) ;
#121 = APPROVAL_DATE_TIME ( #205, #84 ) ;
#122 = ORIENTED_EDGE ( 'NONE', *, *, #93, .T. ) ;
#123 = VECTOR ( 'NONE', #126, 1000.000000000000000 ) ;
#124 = ADVANCED_BREP_SHAPE_REPRESENTATION ( 'Web Model 64397MX_15754', ( #27, #26 ), #219 ) ;
#125 = PERSON_AND_ORGANIZATION ( #11, #115 ) ;
#126 = DIRECTION ( 'NONE',  ( -0.0000000000000000000, -0.0000000000000000000, -1.000000000000000000 ) ) ;
#127 = CARTESIAN_POINT ( 'NONE',  ( 6.349999999999998757, 6.350000000000000533, 3.000000000000000000 ) ) ;
#128 = EDGE_CURVE ( 'NONE', #112, #183, #185, .T. ) ;
#129 = VECTOR ( 'NONE', #135, 1000.000000000000000 ) ;
#130 = APPLICATION_CONTEXT ( 'configuration controlled 3d designs of mechanical parts and assemblies' ) ;
#131 = VERTEX_POINT ( 'NONE', #46 ) ;
#132 = APPLICATION_PROTOCOL_DEFINITION ( 'international standard', 'config_control_design', 1994, #165 ) ;
#133 = ORIENTED_EDGE ( 'NONE', *, *, #20, .F. ) ;
#134 = DATE_AND_TIME ( #138, #107 ) ;
#135 = DIRECTION ( 'NONE',  ( -0.0000000000000000000, -1.000000000000000000, -0.0000000000000000000 ) ) ;
#136 = AXIS2_PLACEMENT_3D ( 'NONE', #221, #18, #43 ) ;
#137 = DIRECTION ( 'NONE',  ( -1.365923996832131609E-16, 1.000000000000000000, 0.0000000000000000000 ) ) ;
#138 = CALENDAR_DATE ( 2020, 19, 10 ) ;
#139 = PERSON_AND_ORGANIZATION ( #11, #115 ) ;
#140 = DIRECTION ( 'NONE',  ( 0.0000000000000000000, 1.000000000000000000, 0.0000000000000000000 ) ) ;
#141 = FACE_OUTER_BOUND ( 'NONE', #157, .T. ) ;
#142 = CARTESIAN_POINT ( 'NONE',  ( 6.349999999999998757, 6.350000000000000533, -3.000000000000000000 ) ) ;
#143 = PRODUCT ( 'Web Model 64397MX_15754', 'Web Model 64397MX_15754', '', ( #70 ) ) ;
#144 = CARTESIAN_POINT ( 'NONE',  ( 6.349999999999998757, -6.349999999999998757, -3.000000000000000000 ) ) ;
#145 = APPROVAL_STATUS ( 'not_yet_approved' ) ;
#146 = VECTOR ( 'NONE', #60, 1000.000000000000000 ) ;
#147 = DATE_TIME_ROLE ( 'classification_date' ) ;
#148 = ORIENTED_EDGE ( 'NONE', *, *, #59, .T. ) ;
#149 = COORDINATED_UNIVERSAL_TIME_OFFSET ( 5, 0, .BEHIND. ) ;
#150 = CC_DESIGN_PERSON_AND_ORGANIZATION_ASSIGNMENT ( #104, #110, ( #50 ) ) ;
#151 = EDGE_CURVE ( 'NONE', #217, #168, #22, .T. ) ;
#152 = ORIENTED_EDGE ( 'NONE', *, *, #153, .F. ) ;
#153 = EDGE_CURVE ( 'NONE', #195, #233, #170, .T. ) ;
#154 = CARTESIAN_POINT ( 'NONE',  ( 6.349999999999998757, -6.349999999999998757, 3.000000000000000000 ) ) ;
#155 = DIRECTION ( 'NONE',  ( -0.0000000000000000000, -1.000000000000000000, -0.0000000000000000000 ) ) ;
#156 = CARTESIAN_POINT ( 'NONE',  ( 6.349999999999998757, -6.349999999999998757, 3.000000000000000000 ) ) ;
#157 = EDGE_LOOP ( 'NONE', ( #114, #167, #98, #45 ) ) ;
#158 = DIRECTION ( 'NONE',  ( 0.0000000000000000000, -0.0000000000000000000, 1.000000000000000000 ) ) ;
#159 =( NAMED_UNIT ( * ) SI_UNIT ( $, .STERADIAN. ) SOLID_ANGLE_UNIT ( ) );
#160 = CARTESIAN_POINT ( 'NONE',  ( 6.349999999999998757, -6.349999999999998757, -3.000000000000000000 ) ) ;
#161 = ORIENTED_EDGE ( 'NONE', *, *, #153, .T. ) ;
#162 = LOCAL_TIME ( 11, 35, 36.00000000000000000, #200 ) ;
#163 = SECURITY_CLASSIFICATION ( '', '', #231 ) ;
#164 = VECTOR ( 'NONE', #207, 1000.000000000000000 ) ;
#165 = APPLICATION_CONTEXT ( 'configuration controlled 3d designs of mechanical parts and assemblies' ) ;
#166 = APPROVAL_ROLE ( '' ) ;
#167 = ORIENTED_EDGE ( 'NONE', *, *, #178, .F. ) ;
#168 = VERTEX_POINT ( 'NONE', #127 ) ;
#169 = CALENDAR_DATE ( 2020, 19, 10 ) ;
#170 = LINE ( 'NONE', #160, #16 ) ;
#171 = ORIENTED_EDGE ( 'NONE', *, *, #42, .T. ) ;
#172 = CC_DESIGN_PERSON_AND_ORGANIZATION_ASSIGNMENT ( #201, #54, ( #163 ) ) ;
#173 = CARTESIAN_POINT ( 'NONE',  ( -6.350000000000000533, 6.349999999999998757, 3.000000000000000000 ) ) ;
#174 = DATE_AND_TIME ( #222, #5 ) ;
#175 = ORIENTED_EDGE ( 'NONE', *, *, #42, .F. ) ;
#176 = LINE ( 'NONE', #41, #57 ) ;
#177 = CARTESIAN_POINT ( 'NONE',  ( 0.0000000000000000000, 0.0000000000000000000, 0.0000000000000000000 ) ) ;
#178 = EDGE_CURVE ( 'NONE', #168, #8, #81, .T. ) ;
#179 = ORIENTED_EDGE ( 'NONE', *, *, #128, .T. ) ;
#180 = APPROVAL_DATE_TIME ( #64, #234 ) ;
#181 = DATE_TIME_ROLE ( 'creation_date' ) ;
#182 = VECTOR ( 'NONE', #24, 1000.000000000000000 ) ;
#183 = VERTEX_POINT ( 'NONE', #7 ) ;
#184 = CALENDAR_DATE ( 2020, 19, 10 ) ;
#185 = LINE ( 'NONE', #192, #36 ) ;
#186 = ORIENTED_EDGE ( 'NONE', *, *, #229, .F. ) ;
#187 = EDGE_LOOP ( 'NONE', ( #215, #32, #237, #71 ) ) ;
#188 = CARTESIAN_POINT ( 'NONE',  ( -6.350000000000000533, -6.350000000000000533, -3.000000000000000000 ) ) ;
#189 = CARTESIAN_POINT ( 'NONE',  ( 6.349999999999998757, -6.349999999999998757, 3.000000000000000000 ) ) ;
#190 = ORIENTED_EDGE ( 'NONE', *, *, #39, .F. ) ;
#191 = APPROVAL_DATE_TIME ( #9, #73 ) ;
#192 = CARTESIAN_POINT ( 'NONE',  ( -6.350000000000000533, 6.349999999999998757, 3.000000000000000000 ) ) ;
#193 = AXIS2_PLACEMENT_3D ( 'NONE', #80, #83, #21 ) ;
#194 = PERSON_AND_ORGANIZATION_ROLE ( 'creator' ) ;
#195 = VERTEX_POINT ( 'NONE', #188 ) ;
#196 = APPROVAL_STATUS ( 'not_yet_approved' ) ;
#197 = LINE ( 'NONE', #154, #146 ) ;
#198 = ADVANCED_FACE ( 'NONE', ( #28 ), #47, .F. ) ;
#199 = EDGE_LOOP ( 'NONE', ( #89, #186, #190, #152 ) ) ;
#200 = COORDINATED_UNIVERSAL_TIME_OFFSET ( 5, 0, .BEHIND. ) ;
#201 = PERSON_AND_ORGANIZATION ( #11, #115 ) ;
#202 = PLANE ( 'NONE',  #85 ) ;
#203 = PRODUCT_RELATED_PRODUCT_CATEGORY ( 'detail', '', ( #143 ) ) ;
#204 = CARTESIAN_POINT ( 'NONE',  ( -6.350000000000000533, -6.350000000000000533, 3.000000000000000000 ) ) ;
#205 = DATE_AND_TIME ( #169, #236 ) ;
#206 = VECTOR ( 'NONE', #155, 1000.000000000000000 ) ;
#207 = DIRECTION ( 'NONE',  ( -1.000000000000000000, -1.365923996832131609E-16, 0.0000000000000000000 ) ) ;
#208 = DIRECTION ( 'NONE',  ( 1.000000000000000000, 1.365923996832131609E-16, -0.0000000000000000000 ) ) ;
#209 = AXIS2_PLACEMENT_3D ( 'NONE', #2, #158, #61 ) ;
#210 = APPROVAL_PERSON_ORGANIZATION ( #139, #84, #67 ) ;
#211 = LINE ( 'NONE', #62, #206 ) ;
#212 = PERSON_AND_ORGANIZATION_ROLE ( 'creator' ) ;
#213 = PRODUCT_DEFINITION_SHAPE ( 'NONE', 'NONE',  #100 ) ;
#214 = UNCERTAINTY_MEASURE_WITH_UNIT (LENGTH_MEASURE( 1.000000000000000082E-05 ), #65, 'distance_accuracy_value', 'NONE');
#215 = ORIENTED_EDGE ( 'NONE', *, *, #229, .T. ) ;
#216 = EDGE_CURVE ( 'NONE', #131, #195, #33, .T. ) ;
#217 = VERTEX_POINT ( 'NONE', #189 ) ;
#218 = CC_DESIGN_APPROVAL ( #84, ( #163 ) ) ;
#219 =( GEOMETRIC_REPRESENTATION_CONTEXT ( 3 ) GLOBAL_UNCERTAINTY_ASSIGNED_CONTEXT ( ( #214 ) ) GLOBAL_UNIT_ASSIGNED_CONTEXT ( ( #65, #227, #159 ) ) REPRESENTATION_CONTEXT ( 'NONE', 'WORKASPACE' ) );
#220 = COORDINATED_UNIVERSAL_TIME_OFFSET ( 5, 0, .BEHIND. ) ;
#221 = CARTESIAN_POINT ( 'NONE',  ( 0.0000000000000000000, 0.0000000000000000000, -3.000000000000000000 ) ) ;
#222 = CALENDAR_DATE ( 2020, 19, 10 ) ;
#223 = EDGE_LOOP ( 'NONE', ( #161, #133, #117, #78 ) ) ;
#224 = DIRECTION ( 'NONE',  ( -0.0000000000000000000, -0.0000000000000000000, -1.000000000000000000 ) ) ;
#225 = VECTOR ( 'NONE', #48, 1000.000000000000000 ) ;
#226 = CARTESIAN_POINT ( 'NONE',  ( 6.349999999999998757, 6.350000000000000533, 3.000000000000000000 ) ) ;
#227 =( NAMED_UNIT ( * ) PLANE_ANGLE_UNIT ( ) SI_UNIT ( $, .RADIAN. ) );
#228 = CC_DESIGN_PERSON_AND_ORGANIZATION_ASSIGNMENT ( #14, #212, ( #100 ) ) ;
#229 = EDGE_CURVE ( 'NONE', #8, #183, #35, .T. ) ;
#230 = VECTOR ( 'NONE', #224, 1000.000000000000000 ) ;
#231 = SECURITY_CLASSIFICATION_LEVEL ( 'unclassified' ) ;
#232 = PERSON_AND_ORGANIZATION_ROLE ( 'design_owner' ) ;
#233 = VERTEX_POINT ( 'NONE', #144 ) ;
#234 = APPROVAL ( #145, 'UNSPECIFIED' ) ;
#235 = CARTESIAN_POINT ( 'NONE',  ( -6.350000000000000533, -6.350000000000000533, 3.000000000000000000 ) ) ;
#236 = LOCAL_TIME ( 11, 35, 36.00000000000000000, #91 ) ;
#237 = ORIENTED_EDGE ( 'NONE', *, *, #90, .F. ) ;
ENDSEC;
END-ISO-10303-21;
