ISO-10303-21;
HEADER;
FILE_DESCRIPTION (( 'STEP AP203' ),
    '1' );
FILE_NAME ('Web Model 37688_11545.step',
    '2019-01-09T20:29:49',
    ( '' ),
    ( '' ),
    'SwSTEP 2.0',
    'SolidWorks 2016',
    '' );
FILE_SCHEMA (( 'CONFIG_CONTROL_DESIGN' ));
ENDSEC;

DATA;
#1 = CARTESIAN_POINT ( 'NONE',  ( 0.0000000000000000000, 0.0000000000000000000, 0.0000000000000000000 ) ) ;
#2 = PRODUCT ( 'Web Model 37688_11545', 'Web Model 37688_11545', '', ( #39 ) ) ;
#3 = PERSON ( 'UNSPECIFIED', 'UNSPECIFIED', 'UNSPECIFIED', ('UNSPECIFIED'), ('UNSPECIFIED'), ('UNSPECIFIED') ) ;
#4 = PERSON_AND_ORGANIZATION ( #3, #96 ) ;
#5 = ORIENTED_EDGE ( 'NONE', *, *, #158, .F. ) ;
#6 = DIRECTION ( 'NONE',  ( 1.000000000000000000, 0.0000000000000000000, 0.0000000000000000000 ) ) ;
#7 = COORDINATED_UNIVERSAL_TIME_OFFSET ( 5, 0, .BEHIND. ) ;
#8 = CARTESIAN_POINT ( 'NONE',  ( -6.349999999999999600, 0.0000000000000000000, 3.174999999999999800 ) ) ;
#9 = DIRECTION ( 'NONE',  ( -0.0000000000000000000, -0.0000000000000000000, -1.000000000000000000 ) ) ;
#10 = APPROVAL_PERSON_ORGANIZATION ( #108, #163, #95 ) ;
#11 = DIRECTION ( 'NONE',  ( 0.0000000000000000000, 0.0000000000000000000, 1.000000000000000000 ) ) ;
#12 = EDGE_LOOP ( 'NONE', ( #92, #140 ) ) ;
#13 = APPROVAL_PERSON_ORGANIZATION ( #4, #132, #49 ) ;
#14 = AXIS2_PLACEMENT_3D ( 'NONE', #125, #156, #120 ) ;
#15 = APPLICATION_CONTEXT ( 'configuration controlled 3d designs of mechanical parts and assemblies' ) ;
#16 = CALENDAR_DATE ( 2019, 9, 1 ) ;
#17 = CC_DESIGN_PERSON_AND_ORGANIZATION_ASSIGNMENT ( #51, #79, ( #136 ) ) ;
#18 = DIRECTION ( 'NONE',  ( -0.0000000000000000000, -0.0000000000000000000, -1.000000000000000000 ) ) ;
#19 = CARTESIAN_POINT ( 'NONE',  ( 0.0000000000000000000, 0.0000000000000000000, 3.174999999999999800 ) ) ;
#20 = COORDINATED_UNIVERSAL_TIME_OFFSET ( 5, 0, .BEHIND. ) ;
#21 = EDGE_CURVE ( 'NONE', #159, #137, #52, .T. ) ;
#22 = ORIENTED_EDGE ( 'NONE', *, *, #23, .T. ) ;
#23 = EDGE_CURVE ( 'NONE', #137, #159, #26, .T. ) ;
#24 = PRODUCT_RELATED_PRODUCT_CATEGORY ( 'detail', '', ( #2 ) ) ;
#25 = DATE_AND_TIME ( #16, #109 ) ;
#26 = CIRCLE ( 'NONE', #93, 6.349999999999999600 ) ;
#27 = DATE_TIME_ROLE ( 'creation_date' ) ;
#28 = CARTESIAN_POINT ( 'NONE',  ( 6.349999999999999600, 7.776507174585692200E-016, 3.174999999999999800 ) ) ;
#29 = DATE_TIME_ROLE ( 'classification_date' ) ;
#30 = LINE ( 'NONE', #98, #55 ) ;
#31 = PERSON_AND_ORGANIZATION ( #3, #96 ) ;
#32 = APPROVAL_STATUS ( 'not_yet_approved' ) ;
#33 = VERTEX_POINT ( 'NONE', #8 ) ;
#34 = DIRECTION ( 'NONE',  ( 0.0000000000000000000, 0.0000000000000000000, 1.000000000000000000 ) ) ;
#35 = APPROVAL_ROLE ( '' ) ;
#36 = EDGE_CURVE ( 'NONE', #133, #33, #87, .T. ) ;
#37 = CYLINDRICAL_SURFACE ( 'NONE', #14, 6.349999999999999600 ) ;
#38 = CARTESIAN_POINT ( 'NONE',  ( 6.349999999999999600, 7.776507174585692200E-016, 3.174999999999999800 ) ) ;
#39 = MECHANICAL_CONTEXT ( 'NONE', #15, 'mechanical' ) ;
#40 = LOCAL_TIME ( 15, 29, 49.00000000000000000, #20 ) ;
#41 = CC_DESIGN_DATE_AND_TIME_ASSIGNMENT ( #112, #27, ( #47 ) ) ;
#42 = DIRECTION ( 'NONE',  ( 0.0000000000000000000, 0.0000000000000000000, 1.000000000000000000 ) ) ;
#43 = PERSON_AND_ORGANIZATION_ROLE ( 'design_owner' ) ;
#44 = COORDINATED_UNIVERSAL_TIME_OFFSET ( 5, 0, .BEHIND. ) ;
#45 = CC_DESIGN_PERSON_AND_ORGANIZATION_ASSIGNMENT ( #113, #130, ( #136 ) ) ;
#46 = CIRCLE ( 'NONE', #170, 6.349999999999999600 ) ;
#47 = PRODUCT_DEFINITION ( 'UNKNOWN', '', #136, #115 ) ;
#48 = ORIENTED_EDGE ( 'NONE', *, *, #36, .F. ) ;
#49 = APPROVAL_ROLE ( '' ) ;
#50 = LINE ( 'NONE', #28, #77 ) ;
#51 = PERSON_AND_ORGANIZATION ( #3, #96 ) ;
#52 = CIRCLE ( 'NONE', #160, 6.349999999999999600 ) ;
#53 = AXIS2_PLACEMENT_3D ( 'NONE', #97, #54, #138 ) ;
#54 = DIRECTION ( 'NONE',  ( 0.0000000000000000000, 0.0000000000000000000, 1.000000000000000000 ) ) ;
#55 = VECTOR ( 'NONE', #9, 1000.000000000000000 ) ;
#56 = APPROVAL_STATUS ( 'not_yet_approved' ) ;
#57 =( GEOMETRIC_REPRESENTATION_CONTEXT ( 3 ) GLOBAL_UNCERTAINTY_ASSIGNED_CONTEXT ( ( #74 ) ) GLOBAL_UNIT_ASSIGNED_CONTEXT ( ( #144, #148, #89 ) ) REPRESENTATION_CONTEXT ( 'NONE', 'WORKASPACE' ) );
#58 = AXIS2_PLACEMENT_3D ( 'NONE', #1, #11, #106 ) ;
#59 = SHAPE_DEFINITION_REPRESENTATION ( #118, #63 ) ;
#60 = AXIS2_PLACEMENT_3D ( 'NONE', #19, #167, #124 ) ;
#61 = DIRECTION ( 'NONE',  ( 1.000000000000000000, 0.0000000000000000000, 0.0000000000000000000 ) ) ;
#62 = DIRECTION ( 'NONE',  ( 1.000000000000000000, 0.0000000000000000000, 0.0000000000000000000 ) ) ;
#63 = ADVANCED_BREP_SHAPE_REPRESENTATION ( 'Web Model 37688_11545', ( #94, #58 ), #57 ) ;
#64 = PERSON_AND_ORGANIZATION ( #3, #96 ) ;
#65 = ORIENTED_EDGE ( 'NONE', *, *, #114, .T. ) ;
#66 = APPROVAL_DATE_TIME ( #123, #132 ) ;
#67 = PLANE ( 'NONE',  #53 ) ;
#68 = CC_DESIGN_SECURITY_CLASSIFICATION ( #83, ( #136 ) ) ;
#69 = APPROVAL_DATE_TIME ( #25, #163 ) ;
#70 = PERSON_AND_ORGANIZATION_ROLE ( 'creator' ) ;
#71 = APPROVAL_PERSON_ORGANIZATION ( #64, #174, #35 ) ;
#72 = EDGE_LOOP ( 'NONE', ( #5, #105, #145, #75 ) ) ;
#73 = APPLICATION_PROTOCOL_DEFINITION ( 'international standard', 'config_control_design', 1994, #15 ) ;
#74 = UNCERTAINTY_MEASURE_WITH_UNIT (LENGTH_MEASURE( 1.000000000000000100E-005 ), #144, 'distance_accuracy_value', 'NONE');
#75 = ORIENTED_EDGE ( 'NONE', *, *, #21, .T. ) ;
#76 = CALENDAR_DATE ( 2019, 9, 1 ) ;
#77 = VECTOR ( 'NONE', #18, 1000.000000000000000 ) ;
#78 = AXIS2_PLACEMENT_3D ( 'NONE', #122, #42, #6 ) ;
#79 = PERSON_AND_ORGANIZATION_ROLE ( 'creator' ) ;
#80 = LOCAL_TIME ( 15, 29, 49.00000000000000000, #44 ) ;
#81 = COORDINATED_UNIVERSAL_TIME_OFFSET ( 5, 0, .BEHIND. ) ;
#82 = SECURITY_CLASSIFICATION_LEVEL ( 'unclassified' ) ;
#83 = SECURITY_CLASSIFICATION ( '', '', #82 ) ;
#84 = EDGE_LOOP ( 'NONE', ( #48, #154, #22, #164 ) ) ;
#85 = APPROVAL_STATUS ( 'not_yet_approved' ) ;
#86 = DIRECTION ( 'NONE',  ( 1.000000000000000000, 0.0000000000000000000, -0.0000000000000000000 ) ) ;
#87 = CIRCLE ( 'NONE', #78, 6.349999999999999600 ) ;
#88 = CLOSED_SHELL ( 'NONE', ( #134, #152, #171, #110 ) ) ;
#89 =( NAMED_UNIT ( * ) SI_UNIT ( $, .STERADIAN. ) SOLID_ANGLE_UNIT ( ) );
#90 = DIRECTION ( 'NONE',  ( 0.0000000000000000000, 0.0000000000000000000, 1.000000000000000000 ) ) ;
#91 = CALENDAR_DATE ( 2019, 9, 1 ) ;
#92 = ORIENTED_EDGE ( 'NONE', *, *, #21, .F. ) ;
#93 = AXIS2_PLACEMENT_3D ( 'NONE', #101, #90, #61 ) ;
#94 = MANIFOLD_SOLID_BREP ( 'Boss-Extrude1', #88 ) ;
#95 = APPROVAL_ROLE ( '' ) ;
#96 = ORGANIZATION ( 'UNSPECIFIED', 'UNSPECIFIED', '' ) ;
#97 = CARTESIAN_POINT ( 'NONE',  ( 0.0000000000000000000, 0.0000000000000000000, -3.174999999999999800 ) ) ;
#98 = CARTESIAN_POINT ( 'NONE',  ( -6.349999999999999600, 0.0000000000000000000, 3.174999999999999800 ) ) ;
#99 = CC_DESIGN_PERSON_AND_ORGANIZATION_ASSIGNMENT ( #31, #70, ( #47 ) ) ;
#100 = CALENDAR_DATE ( 2019, 9, 1 ) ;
#101 = CARTESIAN_POINT ( 'NONE',  ( 0.0000000000000000000, 0.0000000000000000000, -3.174999999999999800 ) ) ;
#102 = CARTESIAN_POINT ( 'NONE',  ( 0.0000000000000000000, 0.0000000000000000000, -3.174999999999999800 ) ) ;
#103 = CC_DESIGN_APPROVAL ( #132, ( #83 ) ) ;
#104 = LOCAL_TIME ( 15, 29, 49.00000000000000000, #81 ) ;
#105 = ORIENTED_EDGE ( 'NONE', *, *, #114, .F. ) ;
#106 = DIRECTION ( 'NONE',  ( 1.000000000000000000, 0.0000000000000000000, 0.0000000000000000000 ) ) ;
#107 = CARTESIAN_POINT ( 'NONE',  ( -6.349999999999999600, 0.0000000000000000000, -3.174999999999999800 ) ) ;
#108 = PERSON_AND_ORGANIZATION ( #3, #96 ) ;
#109 = LOCAL_TIME ( 15, 29, 49.00000000000000000, #7 ) ;
#110 = ADVANCED_FACE ( 'NONE', ( #147 ), #67, .F. ) ;
#111 = PLANE ( 'NONE',  #175 ) ;
#112 = DATE_AND_TIME ( #100, #80 ) ;
#113 = PERSON_AND_ORGANIZATION ( #3, #96 ) ;
#114 = EDGE_CURVE ( 'NONE', #33, #133, #46, .T. ) ;
#115 = DESIGN_CONTEXT ( 'detailed design', #155, 'design' ) ;
#116 = DIRECTION ( 'NONE',  ( 0.0000000000000000000, 0.0000000000000000000, 1.000000000000000000 ) ) ;
#117 = PERSON_AND_ORGANIZATION ( #3, #96 ) ;
#118 = PRODUCT_DEFINITION_SHAPE ( 'NONE', 'NONE',  #47 ) ;
#119 = APPLICATION_PROTOCOL_DEFINITION ( 'international standard', 'config_control_design', 1994, #155 ) ;
#120 = DIRECTION ( 'NONE',  ( -1.000000000000000000, 0.0000000000000000000, 0.0000000000000000000 ) ) ;
#121 = FACE_OUTER_BOUND ( 'NONE', #143, .T. ) ;
#122 = CARTESIAN_POINT ( 'NONE',  ( 0.0000000000000000000, 0.0000000000000000000, 3.174999999999999800 ) ) ;
#123 = DATE_AND_TIME ( #76, #40 ) ;
#124 = DIRECTION ( 'NONE',  ( -1.000000000000000000, 0.0000000000000000000, 0.0000000000000000000 ) ) ;
#125 = CARTESIAN_POINT ( 'NONE',  ( 0.0000000000000000000, 0.0000000000000000000, 3.174999999999999800 ) ) ;
#126 = COORDINATED_UNIVERSAL_TIME_OFFSET ( 5, 0, .BEHIND. ) ;
#127 = FACE_OUTER_BOUND ( 'NONE', #72, .T. ) ;
#128 = EDGE_CURVE ( 'NONE', #33, #159, #30, .T. ) ;
#129 = FACE_OUTER_BOUND ( 'NONE', #84, .T. ) ;
#130 = PERSON_AND_ORGANIZATION_ROLE ( 'design_supplier' ) ;
#131 = DATE_AND_TIME ( #91, #104 ) ;
#132 = APPROVAL ( #56, 'UNSPECIFIED' ) ;
#133 = VERTEX_POINT ( 'NONE', #38 ) ;
#134 = ADVANCED_FACE ( 'NONE', ( #129 ), #157, .T. ) ;
#135 = CARTESIAN_POINT ( 'NONE',  ( 0.0000000000000000000, 0.0000000000000000000, 3.174999999999999800 ) ) ;
#136 = PRODUCT_DEFINITION_FORMATION_WITH_SPECIFIED_SOURCE ( 'ANY', '', #2, .NOT_KNOWN. ) ;
#137 = VERTEX_POINT ( 'NONE', #141 ) ;
#138 = DIRECTION ( 'NONE',  ( 1.000000000000000000, 0.0000000000000000000, -0.0000000000000000000 ) ) ;
#139 = CC_DESIGN_DATE_AND_TIME_ASSIGNMENT ( #168, #29, ( #83 ) ) ;
#140 = ORIENTED_EDGE ( 'NONE', *, *, #23, .F. ) ;
#141 = CARTESIAN_POINT ( 'NONE',  ( 6.349999999999999600, 7.776507174585692200E-016, -3.174999999999999800 ) ) ;
#142 = APPROVAL_DATE_TIME ( #131, #174 ) ;
#143 = EDGE_LOOP ( 'NONE', ( #65, #169 ) ) ;
#144 =( LENGTH_UNIT ( ) NAMED_UNIT ( * ) SI_UNIT ( .MILLI., .METRE. ) );
#145 = ORIENTED_EDGE ( 'NONE', *, *, #128, .T. ) ;
#146 = CC_DESIGN_APPROVAL ( #163, ( #47 ) ) ;
#147 = FACE_OUTER_BOUND ( 'NONE', #12, .T. ) ;
#148 =( NAMED_UNIT ( * ) PLANE_ANGLE_UNIT ( ) SI_UNIT ( $, .RADIAN. ) );
#149 = CC_DESIGN_PERSON_AND_ORGANIZATION_ASSIGNMENT ( #162, #43, ( #2 ) ) ;
#150 = CC_DESIGN_PERSON_AND_ORGANIZATION_ASSIGNMENT ( #117, #173, ( #83 ) ) ;
#151 = CARTESIAN_POINT ( 'NONE',  ( 0.0000000000000000000, 0.0000000000000000000, 3.174999999999999800 ) ) ;
#152 = ADVANCED_FACE ( 'NONE', ( #127 ), #37, .T. ) ;
#153 = LOCAL_TIME ( 15, 29, 49.00000000000000000, #126 ) ;
#154 = ORIENTED_EDGE ( 'NONE', *, *, #158, .T. ) ;
#155 = APPLICATION_CONTEXT ( 'configuration controlled 3d designs of mechanical parts and assemblies' ) ;
#156 = DIRECTION ( 'NONE',  ( -0.0000000000000000000, -0.0000000000000000000, -1.000000000000000000 ) ) ;
#157 = CYLINDRICAL_SURFACE ( 'NONE', #60, 6.349999999999999600 ) ;
#158 = EDGE_CURVE ( 'NONE', #133, #137, #50, .T. ) ;
#159 = VERTEX_POINT ( 'NONE', #107 ) ;
#160 = AXIS2_PLACEMENT_3D ( 'NONE', #102, #34, #172 ) ;
#161 = CALENDAR_DATE ( 2019, 9, 1 ) ;
#162 = PERSON_AND_ORGANIZATION ( #3, #96 ) ;
#163 = APPROVAL ( #85, 'UNSPECIFIED' ) ;
#164 = ORIENTED_EDGE ( 'NONE', *, *, #128, .F. ) ;
#165 = CC_DESIGN_APPROVAL ( #174, ( #136 ) ) ;
#166 = DIRECTION ( 'NONE',  ( 0.0000000000000000000, 0.0000000000000000000, 1.000000000000000000 ) ) ;
#167 = DIRECTION ( 'NONE',  ( -0.0000000000000000000, -0.0000000000000000000, -1.000000000000000000 ) ) ;
#168 = DATE_AND_TIME ( #161, #153 ) ;
#169 = ORIENTED_EDGE ( 'NONE', *, *, #36, .T. ) ;
#170 = AXIS2_PLACEMENT_3D ( 'NONE', #151, #166, #62 ) ;
#171 = ADVANCED_FACE ( 'NONE', ( #121 ), #111, .T. ) ;
#172 = DIRECTION ( 'NONE',  ( 1.000000000000000000, 0.0000000000000000000, 0.0000000000000000000 ) ) ;
#173 = PERSON_AND_ORGANIZATION_ROLE ( 'classification_officer' ) ;
#174 = APPROVAL ( #32, 'UNSPECIFIED' ) ;
#175 = AXIS2_PLACEMENT_3D ( 'NONE', #135, #116, #86 ) ;
ENDSEC;
END-ISO-10303-21;
