ISO-10303-21;
HEADER;
FILE_DESCRIPTION (( 'STEP AP203' ),
    '1' );
FILE_NAME ('Web Model 64397MX_15748.step',
    '2020-10-19T15:35:02',
    ( '' ),
    ( '' ),
    'SwSTEP 2.0',
    'SolidWorks 2018',
    '' );
FILE_SCHEMA (( 'CONFIG_CONTROL_DESIGN' ));
ENDSEC;

DATA;
#1 = CARTESIAN_POINT ( 'NONE',  ( 0.0000000000000000000, 0.0000000000000000000, 3.000000000000000000 ) ) ;
#2 = CARTESIAN_POINT ( 'NONE',  ( 0.0000000000000000000, 0.0000000000000000000, -3.000000000000000000 ) ) ;
#3 = CARTESIAN_POINT ( 'NONE',  ( 6.349999999999998757, -6.349999999999998757, 3.000000000000000000 ) ) ;
#4 = DIRECTION ( 'NONE',  ( -0.0000000000000000000, -0.0000000000000000000, -1.000000000000000000 ) ) ;
#5 = SHAPE_DEFINITION_REPRESENTATION ( #131, #186 ) ;
#6 = VERTEX_POINT ( 'NONE', #52 ) ;
#7 = DIRECTION ( 'NONE',  ( -0.0000000000000000000, -1.000000000000000000, -0.0000000000000000000 ) ) ;
#8 = LOCAL_TIME ( 11, 35, 2.000000000000000000, #50 ) ;
#9 = DIRECTION ( 'NONE',  ( 0.0000000000000000000, 0.0000000000000000000, 1.000000000000000000 ) ) ;
#10 = DIRECTION ( 'NONE',  ( -1.000000000000000000, -1.365923996832131609E-16, 0.0000000000000000000 ) ) ;
#11 = PRODUCT_DEFINITION ( 'UNKNOWN', '', #111, #109 ) ;
#12 = FACE_OUTER_BOUND ( 'NONE', #84, .T. ) ;
#13 = ORIENTED_EDGE ( 'NONE', *, *, #121, .T. ) ;
#14 = PERSON_AND_ORGANIZATION_ROLE ( 'classification_officer' ) ;
#15 = DATE_AND_TIME ( #173, #145 ) ;
#16 = VERTEX_POINT ( 'NONE', #24 ) ;
#17 = ORIENTED_EDGE ( 'NONE', *, *, #58, .F. ) ;
#18 = DIRECTION ( 'NONE',  ( 1.000000000000000000, 0.0000000000000000000, -0.0000000000000000000 ) ) ;
#19 = ORIENTED_EDGE ( 'NONE', *, *, #58, .T. ) ;
#20 = FACE_OUTER_BOUND ( 'NONE', #191, .T. ) ;
#21 = DIRECTION ( 'NONE',  ( 1.000000000000000000, 0.0000000000000000000, 0.0000000000000000000 ) ) ;
#22 = APPROVAL_ROLE ( '' ) ;
#23 = DIRECTION ( 'NONE',  ( -1.000000000000000000, 0.0000000000000000000, 0.0000000000000000000 ) ) ;
#24 = CARTESIAN_POINT ( 'NONE',  ( -6.350000000000000533, -6.350000000000000533, -3.000000000000000000 ) ) ;
#25 = PERSON_AND_ORGANIZATION ( #31, #211 ) ;
#26 = SECURITY_CLASSIFICATION ( '', '', #73 ) ;
#27 = ORIENTED_EDGE ( 'NONE', *, *, #129, .T. ) ;
#28 = APPROVAL_STATUS ( 'not_yet_approved' ) ;
#29 = COORDINATED_UNIVERSAL_TIME_OFFSET ( 5, 0, .BEHIND. ) ;
#30 = VECTOR ( 'NONE', #106, 1000.000000000000000 ) ;
#31 = PERSON ( 'UNSPECIFIED', 'UNSPECIFIED', 'UNSPECIFIED', ('UNSPECIFIED'), ('UNSPECIFIED'), ('UNSPECIFIED') ) ;
#32 = FACE_OUTER_BOUND ( 'NONE', #124, .T. ) ;
#33 = VECTOR ( 'NONE', #227, 1000.000000000000000 ) ;
#34 = DIRECTION ( 'NONE',  ( -1.365923996832131609E-16, 1.000000000000000000, 0.0000000000000000000 ) ) ;
#35 = CARTESIAN_POINT ( 'NONE',  ( -6.350000000000000533, 6.349999999999998757, 3.000000000000000000 ) ) ;
#36 = PERSON_AND_ORGANIZATION ( #31, #211 ) ;
#37 = LINE ( 'NONE', #42, #30 ) ;
#38 = CC_DESIGN_PERSON_AND_ORGANIZATION_ASSIGNMENT ( #200, #14, ( #26 ) ) ;
#39 =( NAMED_UNIT ( * ) PLANE_ANGLE_UNIT ( ) SI_UNIT ( $, .RADIAN. ) );
#40 = CARTESIAN_POINT ( 'NONE',  ( 6.349999999999998757, 6.350000000000000533, -3.000000000000000000 ) ) ;
#41 = PERSON_AND_ORGANIZATION_ROLE ( 'creator' ) ;
#42 = CARTESIAN_POINT ( 'NONE',  ( 6.349999999999998757, -6.349999999999998757, 3.000000000000000000 ) ) ;
#43 = EDGE_CURVE ( 'NONE', #110, #199, #178, .T. ) ;
#44 = CALENDAR_DATE ( 2020, 19, 10 ) ;
#45 = ORIENTED_EDGE ( 'NONE', *, *, #79, .F. ) ;
#46 = APPROVAL_ROLE ( '' ) ;
#47 = DATE_AND_TIME ( #195, #8 ) ;
#48 = ORIENTED_EDGE ( 'NONE', *, *, #82, .T. ) ;
#49 = CC_DESIGN_DATE_AND_TIME_ASSIGNMENT ( #83, #112, ( #11 ) ) ;
#50 = COORDINATED_UNIVERSAL_TIME_OFFSET ( 5, 0, .BEHIND. ) ;
#51 = PERSON_AND_ORGANIZATION ( #31, #211 ) ;
#52 = CARTESIAN_POINT ( 'NONE',  ( 6.349999999999998757, 6.350000000000000533, 3.000000000000000000 ) ) ;
#53 = CARTESIAN_POINT ( 'NONE',  ( 6.349999999999998757, 6.350000000000000533, 3.000000000000000000 ) ) ;
#54 = CARTESIAN_POINT ( 'NONE',  ( -6.350000000000000533, 6.349999999999998757, -3.000000000000000000 ) ) ;
#55 = DIRECTION ( 'NONE',  ( -0.0000000000000000000, -1.000000000000000000, -0.0000000000000000000 ) ) ;
#56 = ORIENTED_EDGE ( 'NONE', *, *, #121, .F. ) ;
#57 = APPROVAL_ROLE ( '' ) ;
#58 = EDGE_CURVE ( 'NONE', #212, #214, #37, .T. ) ;
#59 = VECTOR ( 'NONE', #55, 1000.000000000000000 ) ;
#60 = ORIENTED_EDGE ( 'NONE', *, *, #194, .T. ) ;
#61 = VECTOR ( 'NONE', #89, 1000.000000000000000 ) ;
#62 = DIRECTION ( 'NONE',  ( -0.0000000000000000000, -0.0000000000000000000, -1.000000000000000000 ) ) ;
#63 = AXIS2_PLACEMENT_3D ( 'NONE', #162, #34, #140 ) ;
#64 = APPROVAL_DATE_TIME ( #15, #179 ) ;
#65 = EDGE_CURVE ( 'NONE', #16, #185, #117, .T. ) ;
#66 = ORIENTED_EDGE ( 'NONE', *, *, #65, .T. ) ;
#67 = APPLICATION_CONTEXT ( 'configuration controlled 3d designs of mechanical parts and assemblies' ) ;
#68 = CARTESIAN_POINT ( 'NONE',  ( 6.349999999999998757, -6.349999999999998757, -3.000000000000000000 ) ) ;
#69 = LINE ( 'NONE', #3, #80 ) ;
#70 = LINE ( 'NONE', #122, #74 ) ;
#71 = CARTESIAN_POINT ( 'NONE',  ( -6.350000000000000533, -6.350000000000000533, 3.000000000000000000 ) ) ;
#72 = ORIENTED_EDGE ( 'NONE', *, *, #43, .T. ) ;
#73 = SECURITY_CLASSIFICATION_LEVEL ( 'unclassified' ) ;
#74 = VECTOR ( 'NONE', #4, 1000.000000000000000 ) ;
#75 = CLOSED_SHELL ( 'NONE', ( #144, #85, #228, #189, #168, #166 ) ) ;
#76 = AXIS2_PLACEMENT_3D ( 'NONE', #102, #222, #98 ) ;
#77 = EDGE_CURVE ( 'NONE', #6, #141, #176, .T. ) ;
#78 = ORIENTED_EDGE ( 'NONE', *, *, #152, .F. ) ;
#79 = EDGE_CURVE ( 'NONE', #214, #185, #159, .T. ) ;
#80 = VECTOR ( 'NONE', #142, 1000.000000000000000 ) ;
#81 = DIRECTION ( 'NONE',  ( 0.0000000000000000000, -0.0000000000000000000, 1.000000000000000000 ) ) ;
#82 = EDGE_CURVE ( 'NONE', #185, #110, #127, .T. ) ;
#83 = DATE_AND_TIME ( #231, #232 ) ;
#84 = EDGE_LOOP ( 'NONE', ( #72, #78, #175, #13 ) ) ;
#85 = ADVANCED_FACE ( 'NONE', ( #120 ), #204, .F. ) ;
#86 = CARTESIAN_POINT ( 'NONE',  ( 6.349999999999998757, -6.349999999999998757, -3.000000000000000000 ) ) ;
#87 = LINE ( 'NONE', #71, #59 ) ;
#88 = APPROVAL_STATUS ( 'not_yet_approved' ) ;
#89 = DIRECTION ( 'NONE',  ( -1.000000000000000000, -1.365923996832131609E-16, 0.0000000000000000000 ) ) ;
#90 = AXIS2_PLACEMENT_3D ( 'NONE', #125, #9, #21 ) ;
#91 = CARTESIAN_POINT ( 'NONE',  ( -6.350000000000000533, -6.350000000000000533, 3.000000000000000000 ) ) ;
#92 = COORDINATED_UNIVERSAL_TIME_OFFSET ( 5, 0, .BEHIND. ) ;
#93 = EDGE_LOOP ( 'NONE', ( #48, #56, #234, #225 ) ) ;
#94 = APPROVAL_PERSON_ORGANIZATION ( #154, #153, #46 ) ;
#95 = LINE ( 'NONE', #229, #134 ) ;
#96 = VECTOR ( 'NONE', #10, 1000.000000000000000 ) ;
#97 = LOCAL_TIME ( 11, 35, 2.000000000000000000, #156 ) ;
#98 = DIRECTION ( 'NONE',  ( 0.0000000000000000000, 0.0000000000000000000, -1.000000000000000000 ) ) ;
#99 = PERSON_AND_ORGANIZATION ( #31, #211 ) ;
#100 = DIRECTION ( 'NONE',  ( -0.0000000000000000000, -0.0000000000000000000, -1.000000000000000000 ) ) ;
#101 = ORIENTED_EDGE ( 'NONE', *, *, #43, .F. ) ;
#102 = CARTESIAN_POINT ( 'NONE',  ( -6.350000000000000533, -6.350000000000000533, 3.000000000000000000 ) ) ;
#103 = MANIFOLD_SOLID_BREP ( 'Boss-Extrude1', #75 ) ;
#104 = VECTOR ( 'NONE', #160, 1000.000000000000000 ) ;
#105 = APPLICATION_PROTOCOL_DEFINITION ( 'international standard', 'config_control_design', 1994, #128 ) ;
#106 = DIRECTION ( 'NONE',  ( 1.000000000000000000, 1.365923996832131609E-16, -0.0000000000000000000 ) ) ;
#107 = CARTESIAN_POINT ( 'NONE',  ( 6.349999999999998757, -6.349999999999998757, 3.000000000000000000 ) ) ;
#108 = CARTESIAN_POINT ( 'NONE',  ( 6.349999999999998757, 6.350000000000000533, 3.000000000000000000 ) ) ;
#109 = DESIGN_CONTEXT ( 'detailed design', #67, 'design' ) ;
#110 = VERTEX_POINT ( 'NONE', #224 ) ;
#111 = PRODUCT_DEFINITION_FORMATION_WITH_SPECIFIED_SOURCE ( 'ANY', '', #143, .NOT_KNOWN. ) ;
#112 = DATE_TIME_ROLE ( 'creation_date' ) ;
#113 = APPROVAL ( #88, 'UNSPECIFIED' ) ;
#114 = AXIS2_PLACEMENT_3D ( 'NONE', #2, #164, #220 ) ;
#115 = FACE_OUTER_BOUND ( 'NONE', #93, .T. ) ;
#116 = ORIENTED_EDGE ( 'NONE', *, *, #77, .T. ) ;
#117 = LINE ( 'NONE', #86, #167 ) ;
#118 = PLANE ( 'NONE',  #76 ) ;
#119 = CARTESIAN_POINT ( 'NONE',  ( -6.350000000000000533, 6.349999999999998757, 3.000000000000000000 ) ) ;
#120 = FACE_OUTER_BOUND ( 'NONE', #135, .T. ) ;
#121 = EDGE_CURVE ( 'NONE', #6, #110, #70, .T. ) ;
#122 = CARTESIAN_POINT ( 'NONE',  ( 6.349999999999998757, 6.350000000000000533, 3.000000000000000000 ) ) ;
#123 = CC_DESIGN_DATE_AND_TIME_ASSIGNMENT ( #236, #215, ( #26 ) ) ;
#124 = EDGE_LOOP ( 'NONE', ( #237, #101, #163, #217 ) ) ;
#125 = CARTESIAN_POINT ( 'NONE',  ( 0.0000000000000000000, 0.0000000000000000000, 0.0000000000000000000 ) ) ;
#126 = COORDINATED_UNIVERSAL_TIME_OFFSET ( 5, 0, .BEHIND. ) ;
#127 = LINE ( 'NONE', #139, #33 ) ;
#128 = APPLICATION_CONTEXT ( 'configuration controlled 3d designs of mechanical parts and assemblies' ) ;
#129 = EDGE_CURVE ( 'NONE', #214, #6, #69, .T. ) ;
#130 = APPROVAL_DATE_TIME ( #198, #113 ) ;
#131 = PRODUCT_DEFINITION_SHAPE ( 'NONE', 'NONE',  #11 ) ;
#132 = APPROVAL_DATE_TIME ( #47, #153 ) ;
#133 = EDGE_CURVE ( 'NONE', #212, #16, #177, .T. ) ;
#134 = VECTOR ( 'NONE', #7, 1000.000000000000000 ) ;
#135 = EDGE_LOOP ( 'NONE', ( #66, #45, #17, #203 ) ) ;
#136 = CC_DESIGN_PERSON_AND_ORGANIZATION_ASSIGNMENT ( #25, #196, ( #111 ) ) ;
#137 = APPROVAL_PERSON_ORGANIZATION ( #181, #113, #22 ) ;
#138 =( GEOMETRIC_REPRESENTATION_CONTEXT ( 3 ) GLOBAL_UNCERTAINTY_ASSIGNED_CONTEXT ( ( #158 ) ) GLOBAL_UNIT_ASSIGNED_CONTEXT ( ( #188, #39, #149 ) ) REPRESENTATION_CONTEXT ( 'NONE', 'WORKASPACE' ) );
#139 = CARTESIAN_POINT ( 'NONE',  ( 6.349999999999998757, -6.349999999999998757, -3.000000000000000000 ) ) ;
#140 = DIRECTION ( 'NONE',  ( -1.000000000000000000, -1.365923996832131609E-16, 0.0000000000000000000 ) ) ;
#141 = VERTEX_POINT ( 'NONE', #35 ) ;
#142 = DIRECTION ( 'NONE',  ( 0.0000000000000000000, 1.000000000000000000, 0.0000000000000000000 ) ) ;
#143 = PRODUCT ( 'Web Model 64397MX_15748', 'Web Model 64397MX_15748', '', ( #169 ) ) ;
#144 = ADVANCED_FACE ( 'NONE', ( #20 ), #118, .F. ) ;
#145 = LOCAL_TIME ( 11, 35, 2.000000000000000000, #126 ) ;
#146 = DIRECTION ( 'NONE',  ( 1.000000000000000000, 1.365923996832131609E-16, 0.0000000000000000000 ) ) ;
#147 = DIRECTION ( 'NONE',  ( 1.000000000000000000, 1.365923996832131609E-16, -0.0000000000000000000 ) ) ;
#148 = DIRECTION ( 'NONE',  ( 1.365923996832131609E-16, -1.000000000000000000, 0.0000000000000000000 ) ) ;
#149 =( NAMED_UNIT ( * ) SI_UNIT ( $, .STERADIAN. ) SOLID_ANGLE_UNIT ( ) );
#150 = APPROVAL_PERSON_ORGANIZATION ( #206, #179, #57 ) ;
#151 = ORIENTED_EDGE ( 'NONE', *, *, #192, .F. ) ;
#152 = EDGE_CURVE ( 'NONE', #141, #199, #216, .T. ) ;
#153 = APPROVAL ( #208, 'UNSPECIFIED' ) ;
#154 = PERSON_AND_ORGANIZATION ( #31, #211 ) ;
#155 = CC_DESIGN_PERSON_AND_ORGANIZATION_ASSIGNMENT ( #99, #187, ( #143 ) ) ;
#156 = COORDINATED_UNIVERSAL_TIME_OFFSET ( 5, 0, .BEHIND. ) ;
#157 = ORIENTED_EDGE ( 'NONE', *, *, #152, .T. ) ;
#158 = UNCERTAINTY_MEASURE_WITH_UNIT (LENGTH_MEASURE( 1.000000000000000082E-05 ), #188, 'distance_accuracy_value', 'NONE');
#159 = LINE ( 'NONE', #183, #104 ) ;
#160 = DIRECTION ( 'NONE',  ( -0.0000000000000000000, -0.0000000000000000000, -1.000000000000000000 ) ) ;
#161 = VECTOR ( 'NONE', #62, 1000.000000000000000 ) ;
#162 = CARTESIAN_POINT ( 'NONE',  ( 6.349999999999998757, -6.349999999999998757, 3.000000000000000000 ) ) ;
#163 = ORIENTED_EDGE ( 'NONE', *, *, #82, .F. ) ;
#164 = DIRECTION ( 'NONE',  ( 0.0000000000000000000, -0.0000000000000000000, 1.000000000000000000 ) ) ;
#165 = CC_DESIGN_APPROVAL ( #113, ( #11 ) ) ;
#166 = ADVANCED_FACE ( 'NONE', ( #32 ), #184, .F. ) ;
#167 = VECTOR ( 'NONE', #147, 1000.000000000000000 ) ;
#168 = ADVANCED_FACE ( 'NONE', ( #233 ), #201, .T. ) ;
#169 = MECHANICAL_CONTEXT ( 'NONE', #128, 'mechanical' ) ;
#170 = CC_DESIGN_APPROVAL ( #153, ( #26 ) ) ;
#171 = PLANE ( 'NONE',  #172 ) ;
#172 = AXIS2_PLACEMENT_3D ( 'NONE', #108, #148, #146 ) ;
#173 = CALENDAR_DATE ( 2020, 19, 10 ) ;
#174 = DIRECTION ( 'NONE',  ( 0.0000000000000000000, 0.0000000000000000000, 1.000000000000000000 ) ) ;
#175 = ORIENTED_EDGE ( 'NONE', *, *, #77, .F. ) ;
#176 = LINE ( 'NONE', #53, #61 ) ;
#177 = LINE ( 'NONE', #226, #161 ) ;
#178 = LINE ( 'NONE', #40, #96 ) ;
#179 = APPROVAL ( #28, 'UNSPECIFIED' ) ;
#180 = EDGE_LOOP ( 'NONE', ( #219, #19, #27, #116 ) ) ;
#181 = PERSON_AND_ORGANIZATION ( #31, #211 ) ;
#182 = ORIENTED_EDGE ( 'NONE', *, *, #133, .F. ) ;
#183 = CARTESIAN_POINT ( 'NONE',  ( 6.349999999999998757, -6.349999999999998757, 3.000000000000000000 ) ) ;
#184 = PLANE ( 'NONE',  #114 ) ;
#185 = VERTEX_POINT ( 'NONE', #68 ) ;
#186 = ADVANCED_BREP_SHAPE_REPRESENTATION ( 'Web Model 64397MX_15748', ( #103, #90 ), #138 ) ;
#187 = PERSON_AND_ORGANIZATION_ROLE ( 'design_owner' ) ;
#188 =( LENGTH_UNIT ( ) NAMED_UNIT ( * ) SI_UNIT ( .MILLI., .METRE. ) );
#189 = ADVANCED_FACE ( 'NONE', ( #12 ), #171, .F. ) ;
#190 = LOCAL_TIME ( 11, 35, 2.000000000000000000, #92 ) ;
#191 = EDGE_LOOP ( 'NONE', ( #60, #182, #151, #157 ) ) ;
#192 = EDGE_CURVE ( 'NONE', #141, #212, #87, .T. ) ;
#193 = CC_DESIGN_PERSON_AND_ORGANIZATION_ASSIGNMENT ( #36, #41, ( #11 ) ) ;
#194 = EDGE_CURVE ( 'NONE', #199, #16, #95, .T. ) ;
#195 = CALENDAR_DATE ( 2020, 19, 10 ) ;
#196 = PERSON_AND_ORGANIZATION_ROLE ( 'creator' ) ;
#197 = CC_DESIGN_SECURITY_CLASSIFICATION ( #26, ( #111 ) ) ;
#198 = DATE_AND_TIME ( #202, #97 ) ;
#199 = VERTEX_POINT ( 'NONE', #54 ) ;
#200 = PERSON_AND_ORGANIZATION ( #31, #211 ) ;
#201 = PLANE ( 'NONE',  #210 ) ;
#202 = CALENDAR_DATE ( 2020, 19, 10 ) ;
#203 = ORIENTED_EDGE ( 'NONE', *, *, #133, .T. ) ;
#204 = PLANE ( 'NONE',  #63 ) ;
#205 = CC_DESIGN_PERSON_AND_ORGANIZATION_ASSIGNMENT ( #51, #213, ( #111 ) ) ;
#206 = PERSON_AND_ORGANIZATION ( #31, #211 ) ;
#207 = APPLICATION_PROTOCOL_DEFINITION ( 'international standard', 'config_control_design', 1994, #67 ) ;
#208 = APPROVAL_STATUS ( 'not_yet_approved' ) ;
#209 = PLANE ( 'NONE',  #235 ) ;
#210 = AXIS2_PLACEMENT_3D ( 'NONE', #1, #81, #18 ) ;
#211 = ORGANIZATION ( 'UNSPECIFIED', 'UNSPECIFIED', '' ) ;
#212 = VERTEX_POINT ( 'NONE', #91 ) ;
#213 = PERSON_AND_ORGANIZATION_ROLE ( 'design_supplier' ) ;
#214 = VERTEX_POINT ( 'NONE', #107 ) ;
#215 = DATE_TIME_ROLE ( 'classification_date' ) ;
#216 = LINE ( 'NONE', #119, #223 ) ;
#217 = ORIENTED_EDGE ( 'NONE', *, *, #65, .F. ) ;
#218 = CC_DESIGN_APPROVAL ( #179, ( #111 ) ) ;
#219 = ORIENTED_EDGE ( 'NONE', *, *, #192, .T. ) ;
#220 = DIRECTION ( 'NONE',  ( 1.000000000000000000, 0.0000000000000000000, -0.0000000000000000000 ) ) ;
#221 = PRODUCT_RELATED_PRODUCT_CATEGORY ( 'detail', '', ( #143 ) ) ;
#222 = DIRECTION ( 'NONE',  ( 1.000000000000000000, 0.0000000000000000000, 0.0000000000000000000 ) ) ;
#223 = VECTOR ( 'NONE', #100, 1000.000000000000000 ) ;
#224 = CARTESIAN_POINT ( 'NONE',  ( 6.349999999999998757, 6.350000000000000533, -3.000000000000000000 ) ) ;
#225 = ORIENTED_EDGE ( 'NONE', *, *, #79, .T. ) ;
#226 = CARTESIAN_POINT ( 'NONE',  ( -6.350000000000000533, -6.350000000000000533, 3.000000000000000000 ) ) ;
#227 = DIRECTION ( 'NONE',  ( 0.0000000000000000000, 1.000000000000000000, 0.0000000000000000000 ) ) ;
#228 = ADVANCED_FACE ( 'NONE', ( #115 ), #209, .F. ) ;
#229 = CARTESIAN_POINT ( 'NONE',  ( -6.350000000000000533, -6.350000000000000533, -3.000000000000000000 ) ) ;
#230 = CARTESIAN_POINT ( 'NONE',  ( 6.349999999999998757, -6.349999999999998757, 3.000000000000000000 ) ) ;
#231 = CALENDAR_DATE ( 2020, 19, 10 ) ;
#232 = LOCAL_TIME ( 11, 35, 2.000000000000000000, #29 ) ;
#233 = FACE_OUTER_BOUND ( 'NONE', #180, .T. ) ;
#234 = ORIENTED_EDGE ( 'NONE', *, *, #129, .F. ) ;
#235 = AXIS2_PLACEMENT_3D ( 'NONE', #230, #23, #174 ) ;
#236 = DATE_AND_TIME ( #44, #190 ) ;
#237 = ORIENTED_EDGE ( 'NONE', *, *, #194, .F. ) ;
ENDSEC;
END-ISO-10303-21;
