ISO-10303-21;
HEADER;
FILE_DESCRIPTION (( 'STEP AP203' ),
    '1' );
FILE_NAME ('TTN051887-E0W.STEP',
    '2017-04-18T15:07:41',
    ( 'admin' ),
    ( '' ),
    'SwSTEP 2.0',
    'SolidWorks 2016',
    '' );
FILE_SCHEMA (( 'CONFIG_CONTROL_DESIGN' ));
ENDSEC;

DATA;
#1 = EDGE_CURVE ( 'NONE', #94, #194, #302, .T. ) ;
#2 = DIRECTION ( 'NONE',  ( 0.0000000000000000000, -1.000000000000000000, -1.991960241687760400E-016 ) ) ;
#3 = CARTESIAN_POINT ( 'NONE',  ( 0.0000000000000000000, 0.0000000000000000000, 0.0000000000000000000 ) ) ;
#4 = CALENDAR_DATE ( 2017, 18, 4 ) ;
#5 = CARTESIAN_POINT ( 'NONE',  ( 0.0000000000000000000, 0.0000000000000000000, -5.423543307086614400 ) ) ;
#6 = DIRECTION ( 'NONE',  ( 0.0000000000000000000, 0.6741122782420806400, -0.7386288894453504300 ) ) ;
#7 = CIRCLE ( 'NONE', #55, 0.4921644011519598600 ) ;
#8 = DIRECTION ( 'NONE',  ( 0.0000000000000000000, 1.000000000000000000, 1.878145495644180800E-016 ) ) ;
#9 = PERSON_AND_ORGANIZATION ( #285, #258 ) ;
#10 = DIRECTION ( 'NONE',  ( -0.0000000000000000000, -1.836909530733459600E-016, 1.000000000000000000 ) ) ;
#11 = PERSON_AND_ORGANIZATION_ROLE ( 'classification_officer' ) ;
#12 = CONICAL_SURFACE ( 'NONE', #257, 0.5000000000000000000, 0.7397621912007592600 ) ;
#13 = DATE_TIME_ROLE ( 'creation_date' ) ;
#14 = MANIFOLD_SOLID_BREP ( 'TTN051888-1-solid1', #66 ) ;
#15 = ADVANCED_FACE ( 'NONE', ( #255 ), #12, .T. ) ;
#16 = EDGE_CURVE ( 'NONE', #187, #94, #213, .T. ) ;
#17 = CALENDAR_DATE ( 2017, 18, 4 ) ;
#18 = CARTESIAN_POINT ( 'NONE',  ( 0.0000000000000000000, 1.721213495944936700E-017, -0.03149686879082019800 ) ) ;
#19 = AXIS2_PLACEMENT_3D ( 'NONE', #179, #27, #71 ) ;
#20 = VERTEX_POINT ( 'NONE', #56 ) ;
#21 = DIRECTION ( 'NONE',  ( 0.0000000000000000000, 1.000000000000000000, 1.991960241687760400E-016 ) ) ;
#22 = CC_DESIGN_PERSON_AND_ORGANIZATION_ASSIGNMENT ( #46, #320, ( #69 ) ) ;
#23 = FACE_OUTER_BOUND ( 'NONE', #272, .T. ) ;
#24 = APPROVAL_STATUS ( 'not_yet_approved' ) ;
#25 = DIRECTION ( 'NONE',  ( -1.000000000000000000, 0.0000000000000000000, 0.0000000000000000000 ) ) ;
#26 = DIRECTION ( 'NONE',  ( -1.000000000000000000, 0.0000000000000000000, 0.0000000000000000000 ) ) ;
#27 = DIRECTION ( 'NONE',  ( -1.000000000000000000, 1.224646799147353200E-016, 2.249565377136128800E-032 ) ) ;
#28 = DIRECTION ( 'NONE',  ( -0.0000000000000000000, -1.836909530733459600E-016, 1.000000000000000000 ) ) ;
#29 = AXIS2_PLACEMENT_3D ( 'NONE', #103, #166, #150 ) ;
#30 = DIRECTION ( 'NONE',  ( 0.0000000000000000000, 1.836909530733459600E-016, -1.000000000000000000 ) ) ;
#31 = ORIENTED_EDGE ( 'NONE', *, *, #318, .F. ) ;
#32 = DIRECTION ( 'NONE',  ( 1.224646799147353200E-016, 1.000000000000000000, 0.0000000000000000000 ) ) ;
#33 = CC_DESIGN_APPROVAL ( #214, ( #84 ) ) ;
#34 = VERTEX_POINT ( 'NONE', #240 ) ;
#35 = CARTESIAN_POINT ( 'NONE',  ( 0.0000000000000000000, -0.4921644011519601400, -0.04008238171213954200 ) ) ;
#36 = EDGE_CURVE ( 'NONE', #138, #42, #77, .T. ) ;
#37 = CIRCLE ( 'NONE', #241, 0.5000000000000000000 ) ;
#38 = AXIS2_PLACEMENT_3D ( 'NONE', #5, #25, #81 ) ;
#39 = APPROVAL_ROLE ( '' ) ;
#40 = DATE_AND_TIME ( #89, #163 ) ;
#41 = ORIENTED_EDGE ( 'NONE', *, *, #1, .T. ) ;
#42 = VERTEX_POINT ( 'NONE', #176 ) ;
#43 = DIRECTION ( 'NONE',  ( 0.0000000000000000000, 1.836909530733459600E-016, -1.000000000000000000 ) ) ;
#44 = FACE_OUTER_BOUND ( 'NONE', #171, .T. ) ;
#45 = CARTESIAN_POINT ( 'NONE',  ( 0.0000000000000000000, -0.5000000000000000000, -0.03149686879082028900 ) ) ;
#46 = PERSON_AND_ORGANIZATION ( #285, #258 ) ;
#47 = AXIS2_PLACEMENT_3D ( 'NONE', #216, #26, #21 ) ;
#48 = DIRECTION ( 'NONE',  ( 0.0000000000000000000, -1.000000000000000000, -1.878145495644180800E-016 ) ) ;
#49 = CC_DESIGN_PERSON_AND_ORGANIZATION_ASSIGNMENT ( #9, #169, ( #84 ) ) ;
#50 = EDGE_LOOP ( 'NONE', ( #105, #193, #314 ) ) ;
#51 = CALENDAR_DATE ( 2017, 18, 4 ) ;
#52 = DIRECTION ( 'NONE',  ( 0.0000000000000000000, 1.836909530733459600E-016, -1.000000000000000000 ) ) ;
#53 = CARTESIAN_POINT ( 'NONE',  ( 0.0000000000000000000, 0.0000000000000000000, 5.423543307086614400 ) ) ;
#54 = EDGE_LOOP ( 'NONE', ( #203, #136, #173, #140 ) ) ;
#55 = AXIS2_PLACEMENT_3D ( 'NONE', #313, #52, #82 ) ;
#56 = CARTESIAN_POINT ( 'NONE',  ( 6.123233995736766000E-017, 0.5000000000000000000, 0.03149686879082028200 ) ) ;
#57 = SECURITY_CLASSIFICATION ( '', '', #168 ) ;
#58 = AXIS2_PLACEMENT_3D ( 'NONE', #130, #289, #204 ) ;
#59 = FACE_OUTER_BOUND ( 'NONE', #54, .T. ) ;
#60 = ORIENTED_EDGE ( 'NONE', *, *, #174, .T. ) ;
#61 = LOCAL_TIME ( 11, 7, 41.00000000000000000, #325 ) ;
#62 = DIRECTION ( 'NONE',  ( 0.0000000000000000000, -1.000000000000000000, -1.878145495644180800E-016 ) ) ;
#63 = DATE_AND_TIME ( #4, #192 ) ;
#64 = EDGE_CURVE ( 'NONE', #187, #315, #271, .T. ) ;
#65 = VECTOR ( 'NONE', #189, 39.37007874015748100 ) ;
#66 = CLOSED_SHELL ( 'NONE', ( #70, #15, #251, #224, #298, #145, #92, #118, #196, #326 ) ) ;
#67 = VECTOR ( 'NONE', #220, 39.37007874015748100 ) ;
#68 = EDGE_LOOP ( 'NONE', ( #185, #73, #161, #247 ) ) ;
#69 = PRODUCT_DEFINITION_FORMATION_WITH_SPECIFIED_SOURCE ( 'ANY', '', #235, .NOT_KNOWN. ) ;
#70 = ADVANCED_FACE ( 'NONE', ( #133 ), #218, .T. ) ;
#71 = DIRECTION ( 'NONE',  ( -1.224646799147353200E-016, -1.000000000000000000, 0.0000000000000000000 ) ) ;
#72 = EDGE_CURVE ( 'NONE', #34, #20, #37, .T. ) ;
#73 = ORIENTED_EDGE ( 'NONE', *, *, #124, .T. ) ;
#74 = APPROVAL_DATE_TIME ( #63, #214 ) ;
#75 = DIRECTION ( 'NONE',  ( -0.0000000000000000000, -1.836909530733459600E-016, 1.000000000000000000 ) ) ;
#76 =( GEOMETRIC_REPRESENTATION_CONTEXT ( 3 ) GLOBAL_UNCERTAINTY_ASSIGNED_CONTEXT ( ( #292 ) ) GLOBAL_UNIT_ASSIGNED_CONTEXT ( ( #91, #273, #121 ) ) REPRESENTATION_CONTEXT ( 'NONE', 'WORKASPACE' ) );
#77 = CIRCLE ( 'NONE', #225, 0.4921644011519583600 ) ;
#78 = CIRCLE ( 'NONE', #132, 0.5000000000000000000 ) ;
#79 = DIRECTION ( 'NONE',  ( 0.0000000000000000000, 1.000000000000000000, 1.908046875442635600E-016 ) ) ;
#80 = DIRECTION ( 'NONE',  ( 0.0000000000000000000, 0.0000000000000000000, -1.000000000000000000 ) ) ;
#81 = DIRECTION ( 'NONE',  ( 0.0000000000000000000, 1.000000000000000000, 1.991960241687760400E-016 ) ) ;
#82 = DIRECTION ( 'NONE',  ( 0.0000000000000000000, -1.000000000000000000, -1.908046875442630700E-016 ) ) ;
#83 = CARTESIAN_POINT ( 'NONE',  ( 0.0000000000000000000, 0.0000000000000000000, 5.423543307086614400 ) ) ;
#84 = PRODUCT_DEFINITION ( 'UNKNOWN', '', #69, #249 ) ;
#85 = VECTOR ( 'NONE', #6, 39.37007874015748100 ) ;
#86 = EDGE_LOOP ( 'NONE', ( #172, #230, #200 ) ) ;
#87 = CIRCLE ( 'NONE', #297, 5.485748031496063600 ) ;
#88 = EDGE_CURVE ( 'NONE', #315, #20, #307, .T. ) ;
#89 = CALENDAR_DATE ( 2017, 18, 4 ) ;
#90 = CARTESIAN_POINT ( 'NONE',  ( 0.0000000000000000000, 4.063674214283929700E-018, 0.04008238171214058300 ) ) ;
#91 =( CONVERSION_BASED_UNIT ( 'INCH', #113 ) LENGTH_UNIT ( ) NAMED_UNIT ( #254 ) );
#92 = ADVANCED_FACE ( 'NONE', ( #246 ), #128, .T. ) ;
#93 = PERSON_AND_ORGANIZATION_ROLE ( 'design_supplier' ) ;
#94 = VERTEX_POINT ( 'NONE', #35 ) ;
#95 = AXIS2_PLACEMENT_3D ( 'NONE', #108, #101, #2 ) ;
#96 = VERTEX_POINT ( 'NONE', #114 ) ;
#97 = AXIS2_PLACEMENT_3D ( 'NONE', #159, #116, #301 ) ;
#98 = DIRECTION ( 'NONE',  ( 0.0000000000000000000, 1.000000000000000000, 1.908046875442636300E-016 ) ) ;
#99 = PRODUCT_DEFINITION_SHAPE ( 'NONE', 'NONE',  #84 ) ;
#100 = VECTOR ( 'NONE', #219, 39.37007874015748100 ) ;
#101 = DIRECTION ( 'NONE',  ( 1.000000000000000000, 0.0000000000000000000, 0.0000000000000000000 ) ) ;
#102 = ORIENTED_EDGE ( 'NONE', *, *, #318, .T. ) ;
#103 = CARTESIAN_POINT ( 'NONE',  ( 0.0000000000000000000, 0.0000000000000000000, 5.423543307086614400 ) ) ;
#104 = EDGE_CURVE ( 'NONE', #138, #20, #300, .T. ) ;
#105 = ORIENTED_EDGE ( 'NONE', *, *, #199, .F. ) ;
#106 = EDGE_CURVE ( 'NONE', #20, #34, #197, .T. ) ;
#107 = CARTESIAN_POINT ( 'NONE',  ( 0.0000000000000000000, 0.4921644011519594700, 0.04008238171213954200 ) ) ;
#108 = CARTESIAN_POINT ( 'NONE',  ( 0.0000000000000000000, 0.0000000000000000000, 5.423543307086614400 ) ) ;
#109 = CIRCLE ( 'NONE', #144, 5.485748031496062700 ) ;
#110 = CARTESIAN_POINT ( 'NONE',  ( 0.0000000000000000000, 0.0000000000000000000, 0.06220472440944882500 ) ) ;
#111 = PERSON_AND_ORGANIZATION ( #285, #258 ) ;
#112 = VECTOR ( 'NONE', #201, 39.37007874015748900 ) ;
#113 = LENGTH_MEASURE_WITH_UNIT ( LENGTH_MEASURE( 0.02539999999999999900 ), #207 );
#114 = CARTESIAN_POINT ( 'NONE',  ( 0.0000000000000000000, -6.717770958407744300E-016, 0.06220472440944874200 ) ) ;
#115 = AXIS2_PLACEMENT_3D ( 'NONE', #265, #129, #309 ) ;
#116 = DIRECTION ( 'NONE',  ( -0.0000000000000000000, -1.836909530733459600E-016, 1.000000000000000000 ) ) ;
#117 = DATE_AND_TIME ( #51, #316 ) ;
#118 = ADVANCED_FACE ( 'NONE', ( #181 ), #290, .T. ) ;
#119 = ORIENTED_EDGE ( 'NONE', *, *, #269, .F. ) ;
#120 = CIRCLE ( 'NONE', #294, 0.4921644011519583600 ) ;
#121 =( NAMED_UNIT ( * ) SI_UNIT ( $, .STERADIAN. ) SOLID_ANGLE_UNIT ( ) );
#122 = CARTESIAN_POINT ( 'NONE',  ( 0.0000000000000000000, 5.640755265424923100E-018, 0.03149686879082018400 ) ) ;
#123 = AXIS2_PLACEMENT_3D ( 'NONE', #3, #160, #198 ) ;
#124 = EDGE_CURVE ( 'NONE', #42, #34, #323, .T. ) ;
#125 = APPLICATION_PROTOCOL_DEFINITION ( 'international standard', 'config_control_design', 1994, #182 ) ;
#126 = CALENDAR_DATE ( 2017, 18, 4 ) ;
#127 = CC_DESIGN_PERSON_AND_ORGANIZATION_ASSIGNMENT ( #178, #11, ( #57 ) ) ;
#128 = CYLINDRICAL_SURFACE ( 'NONE', #180, 0.5000000000000000000 ) ;
#129 = DIRECTION ( 'NONE',  ( 0.0000000000000000000, 1.836909530733459600E-016, -1.000000000000000000 ) ) ;
#130 = CARTESIAN_POINT ( 'NONE',  ( 0.0000000000000000000, 1.721213495944943200E-017, -0.03149686879082018400 ) ) ;
#131 = PERSON_AND_ORGANIZATION ( #285, #258 ) ;
#132 = AXIS2_PLACEMENT_3D ( 'NONE', #18, #10, #48 ) ;
#133 = FACE_OUTER_BOUND ( 'NONE', #68, .T. ) ;
#134 = CARTESIAN_POINT ( 'NONE',  ( 6.027275585250232100E-017, 0.4921644011519621900, -0.04008238171213943800 ) ) ;
#135 = CARTESIAN_POINT ( 'NONE',  ( 0.0000000000000000000, 1.003618610011459400E-015, -0.04008238171213949300 ) ) ;
#136 = ORIENTED_EDGE ( 'NONE', *, *, #36, .F. ) ;
#137 = ORIENTED_EDGE ( 'NONE', *, *, #16, .T. ) ;
#138 = VERTEX_POINT ( 'NONE', #107 ) ;
#139 = APPROVAL_DATE_TIME ( #40, #284 ) ;
#140 = ORIENTED_EDGE ( 'NONE', *, *, #72, .F. ) ;
#141 = EDGE_CURVE ( 'NONE', #310, #94, #291, .T. ) ;
#142 = CIRCLE ( 'NONE', #19, 5.485748031496062700 ) ;
#143 = ORIENTED_EDGE ( 'NONE', *, *, #162, .T. ) ;
#144 = AXIS2_PLACEMENT_3D ( 'NONE', #53, #210, #32 ) ;
#145 = ADVANCED_FACE ( 'NONE', ( #146 ), #208, .T. ) ;
#146 = FACE_OUTER_BOUND ( 'NONE', #50, .T. ) ;
#147 = APPROVAL_PERSON_ORGANIZATION ( #131, #214, #167 ) ;
#148 = DIRECTION ( 'NONE',  ( 0.0000000000000000000, 1.000000000000000000, 1.878145495644180800E-016 ) ) ;
#149 = CYLINDRICAL_SURFACE ( 'NONE', #170, 0.5000000000000000000 ) ;
#150 = DIRECTION ( 'NONE',  ( 0.0000000000000000000, -1.000000000000000000, -1.991960241687760400E-016 ) ) ;
#151 = PRODUCT_RELATED_PRODUCT_CATEGORY ( 'detail', '', ( #235 ) ) ;
#152 = MECHANICAL_CONTEXT ( 'NONE', #182, 'mechanical' ) ;
#153 = SPHERICAL_SURFACE ( 'NONE', #95, 5.485748031496062700 ) ;
#154 = CC_DESIGN_PERSON_AND_ORGANIZATION_ASSIGNMENT ( #321, #305, ( #235 ) ) ;
#155 = DIRECTION ( 'NONE',  ( -0.0000000000000000000, -1.836909530733566400E-016, 1.000000000000000000 ) ) ;
#156 = ORIENTED_EDGE ( 'NONE', *, *, #88, .T. ) ;
#157 = PERSON_AND_ORGANIZATION ( #285, #258 ) ;
#158 = APPROVAL_STATUS ( 'not_yet_approved' ) ;
#159 = CARTESIAN_POINT ( 'NONE',  ( 0.0000000000000000000, 1.721213495944936700E-017, -0.03149686879082019800 ) ) ;
#160 = DIRECTION ( 'NONE',  ( 0.0000000000000000000, 0.0000000000000000000, 1.000000000000000000 ) ) ;
#161 = ORIENTED_EDGE ( 'NONE', *, *, #106, .F. ) ;
#162 = EDGE_CURVE ( 'NONE', #94, #187, #7, .T. ) ;
#163 = LOCAL_TIME ( 11, 7, 41.00000000000000000, #242 ) ;
#164 = CC_DESIGN_SECURITY_CLASSIFICATION ( #57, ( #69 ) ) ;
#165 = CARTESIAN_POINT ( 'NONE',  ( 6.123233995736766000E-017, 0.5000000000000000000, 0.06220472440944891500 ) ) ;
#166 = DIRECTION ( 'NONE',  ( 1.000000000000000000, 0.0000000000000000000, 0.0000000000000000000 ) ) ;
#167 = APPROVAL_ROLE ( '' ) ;
#168 = SECURITY_CLASSIFICATION_LEVEL ( 'unclassified' ) ;
#169 = PERSON_AND_ORGANIZATION_ROLE ( 'creator' ) ;
#170 = AXIS2_PLACEMENT_3D ( 'NONE', #287, #155, #234 ) ;
#171 = EDGE_LOOP ( 'NONE', ( #226, #223, #41, #31 ) ) ;
#172 = ORIENTED_EDGE ( 'NONE', *, *, #36, .T. ) ;
#173 = ORIENTED_EDGE ( 'NONE', *, *, #104, .T. ) ;
#174 = EDGE_CURVE ( 'NONE', #194, #315, #78, .T. ) ;
#175 = DIRECTION ( 'NONE',  ( -0.0000000000000000000, -1.836909530733459600E-016, 1.000000000000000000 ) ) ;
#176 = CARTESIAN_POINT ( 'NONE',  ( -6.027275585250222200E-017, -0.4921644011519614200, 0.04008238171213943800 ) ) ;
#177 = CC_DESIGN_APPROVAL ( #217, ( #57 ) ) ;
#178 = PERSON_AND_ORGANIZATION ( #285, #258 ) ;
#179 = CARTESIAN_POINT ( 'NONE',  ( 0.0000000000000000000, 0.0000000000000000000, -5.423543307086614400 ) ) ;
#180 = AXIS2_PLACEMENT_3D ( 'NONE', #110, #267, #293 ) ;
#181 = FACE_OUTER_BOUND ( 'NONE', #324, .T. ) ;
#182 = APPLICATION_CONTEXT ( 'configuration controlled 3d designs of mechanical parts and assemblies' ) ;
#183 = DIRECTION ( 'NONE',  ( 0.0000000000000000000, -1.000000000000000000, -1.908046875442630700E-016 ) ) ;
#184 = COORDINATED_UNIVERSAL_TIME_OFFSET ( 5, 0, .BEHIND. ) ;
#185 = ORIENTED_EDGE ( 'NONE', *, *, #279, .F. ) ;
#186 = PERSON_AND_ORGANIZATION ( #285, #258 ) ;
#187 = VERTEX_POINT ( 'NONE', #134 ) ;
#188 = DIRECTION ( 'NONE',  ( 0.0000000000000000000, 1.836909530733459600E-016, -1.000000000000000000 ) ) ;
#189 = DIRECTION ( 'NONE',  ( 0.0000000000000000000, -0.6741122782420614400, 0.7386288894453679800 ) ) ;
#190 = ORIENTED_EDGE ( 'NONE', *, *, #106, .T. ) ;
#191 = DATE_TIME_ROLE ( 'classification_date' ) ;
#192 = LOCAL_TIME ( 11, 7, 41.00000000000000000, #184 ) ;
#193 = ORIENTED_EDGE ( 'NONE', *, *, #279, .T. ) ;
#194 = VERTEX_POINT ( 'NONE', #45 ) ;
#195 = DATE_AND_TIME ( #126, #61 ) ;
#196 = ADVANCED_FACE ( 'NONE', ( #44 ), #264, .T. ) ;
#197 = CIRCLE ( 'NONE', #221, 0.5000000000000000000 ) ;
#198 = DIRECTION ( 'NONE',  ( 1.000000000000000000, 0.0000000000000000000, 0.0000000000000000000 ) ) ;
#199 = EDGE_CURVE ( 'NONE', #42, #96, #142, .T. ) ;
#200 = ORIENTED_EDGE ( 'NONE', *, *, #222, .F. ) ;
#201 = DIRECTION ( 'NONE',  ( 8.255494438150702000E-017, 0.6741122782420611000, 0.7386288894453680900 ) ) ;
#202 = DIRECTION ( 'NONE',  ( 0.0000000000000000000, 0.0000000000000000000, 1.000000000000000000 ) ) ;
#203 = ORIENTED_EDGE ( 'NONE', *, *, #124, .F. ) ;
#204 = DIRECTION ( 'NONE',  ( 0.0000000000000000000, -1.000000000000000000, -1.878145495644180800E-016 ) ) ;
#205 = CIRCLE ( 'NONE', #97, 0.5000000000000000000 ) ;
#206 = ORIENTED_EDGE ( 'NONE', *, *, #268, .F. ) ;
#207 =( LENGTH_UNIT ( ) NAMED_UNIT ( * ) SI_UNIT ( $, .METRE. ) );
#208 = SPHERICAL_SURFACE ( 'NONE', #47, 5.485748031496062700 ) ;
#209 = CARTESIAN_POINT ( 'NONE',  ( 0.0000000000000000000, 0.0000000000000000000, -5.423543307086614400 ) ) ;
#210 = DIRECTION ( 'NONE',  ( 1.000000000000000000, -1.224646799147353200E-016, -2.249565377136128800E-032 ) ) ;
#211 = ADVANCED_BREP_SHAPE_REPRESENTATION ( 'TTN051887-E0W', ( #14, #123 ), #76 ) ;
#212 = COORDINATED_UNIVERSAL_TIME_OFFSET ( 5, 0, .BEHIND. ) ;
#213 = CIRCLE ( 'NONE', #245, 0.4921644011519598600 ) ;
#214 = APPROVAL ( #244, 'UNSPECIFIED' ) ;
#215 = FACE_OUTER_BOUND ( 'NONE', #304, .T. ) ;
#216 = CARTESIAN_POINT ( 'NONE',  ( 0.0000000000000000000, 0.0000000000000000000, -5.423543307086614400 ) ) ;
#217 = APPROVAL ( #158, 'UNSPECIFIED' ) ;
#218 = CONICAL_SURFACE ( 'NONE', #236, 0.4921644011519585900, 0.7397621912007852400 ) ;
#219 = DIRECTION ( 'NONE',  ( -0.0000000000000000000, -1.836909530733566400E-016, 1.000000000000000000 ) ) ;
#220 = DIRECTION ( 'NONE',  ( 8.255494438150938700E-017, -0.6741122782420804200, -0.7386288894453506600 ) ) ;
#221 = AXIS2_PLACEMENT_3D ( 'NONE', #122, #277, #148 ) ;
#222 = EDGE_CURVE ( 'NONE', #138, #96, #87, .T. ) ;
#223 = ORIENTED_EDGE ( 'NONE', *, *, #162, .F. ) ;
#224 = ADVANCED_FACE ( 'NONE', ( #23 ), #149, .T. ) ;
#225 = AXIS2_PLACEMENT_3D ( 'NONE', #232, #75, #229 ) ;
#226 = ORIENTED_EDGE ( 'NONE', *, *, #64, .F. ) ;
#227 = DATE_AND_TIME ( #17, #283 ) ;
#228 = DIRECTION ( 'NONE',  ( -1.000000000000000000, 0.0000000000000000000, -0.0000000000000000000 ) ) ;
#229 = DIRECTION ( 'NONE',  ( 0.0000000000000000000, 1.000000000000000000, 1.908046875442636300E-016 ) ) ;
#230 = ORIENTED_EDGE ( 'NONE', *, *, #199, .T. ) ;
#231 = CARTESIAN_POINT ( 'NONE',  ( 0.0000000000000000000, -0.5000000000000000000, -0.03149686879082028200 ) ) ;
#232 = CARTESIAN_POINT ( 'NONE',  ( 0.0000000000000000000, -1.003618610011459400E-015, 0.04008238171213949300 ) ) ;
#233 = CC_DESIGN_DATE_AND_TIME_ASSIGNMENT ( #117, #191, ( #57 ) ) ;
#234 = DIRECTION ( 'NONE',  ( 0.0000000000000000000, -1.000000000000000000, -1.878145495644180800E-016 ) ) ;
#235 = PRODUCT ( 'TTN051887-E0W', 'TTN051887-E0W', '', ( #152 ) ) ;
#236 = AXIS2_PLACEMENT_3D ( 'NONE', #90, #43, #79 ) ;
#237 = CARTESIAN_POINT ( 'NONE',  ( 0.0000000000000000000, -0.5000000000000000000, 0.06220472440944872800 ) ) ;
#238 = ORIENTED_EDGE ( 'NONE', *, *, #16, .F. ) ;
#239 = CARTESIAN_POINT ( 'NONE',  ( 6.123233995736766000E-017, 0.5000000000000000000, -0.03149686879082009400 ) ) ;
#240 = CARTESIAN_POINT ( 'NONE',  ( 0.0000000000000000000, -0.5000000000000000000, 0.03149686879082009400 ) ) ;
#241 = AXIS2_PLACEMENT_3D ( 'NONE', #317, #188, #8 ) ;
#242 = COORDINATED_UNIVERSAL_TIME_OFFSET ( 5, 0, .BEHIND. ) ;
#243 = APPLICATION_PROTOCOL_DEFINITION ( 'international standard', 'config_control_design', 1994, #308 ) ;
#244 = APPROVAL_STATUS ( 'not_yet_approved' ) ;
#245 = AXIS2_PLACEMENT_3D ( 'NONE', #135, #30, #183 ) ;
#246 = FACE_OUTER_BOUND ( 'NONE', #330, .T. ) ;
#247 = ORIENTED_EDGE ( 'NONE', *, *, #104, .F. ) ;
#248 = CC_DESIGN_DATE_AND_TIME_ASSIGNMENT ( #227, #13, ( #84 ) ) ;
#249 = DESIGN_CONTEXT ( 'detailed design', #308, 'design' ) ;
#250 = ORIENTED_EDGE ( 'NONE', *, *, #141, .F. ) ;
#251 = ADVANCED_FACE ( 'NONE', ( #215 ), #153, .T. ) ;
#252 = COORDINATED_UNIVERSAL_TIME_OFFSET ( 5, 0, .BEHIND. ) ;
#253 = SPHERICAL_SURFACE ( 'NONE', #38, 5.485748031496062700 ) ;
#254 = DIMENSIONAL_EXPONENTS ( 1.000000000000000000, 0.0000000000000000000, 0.0000000000000000000, 0.0000000000000000000, 0.0000000000000000000, 0.0000000000000000000, 0.0000000000000000000 ) ;
#255 = FACE_OUTER_BOUND ( 'NONE', #319, .T. ) ;
#256 = ORIENTED_EDGE ( 'NONE', *, *, #141, .T. ) ;
#257 = AXIS2_PLACEMENT_3D ( 'NONE', #327, #175, #62 ) ;
#258 = ORGANIZATION ( 'UNSPECIFIED', 'UNSPECIFIED', '' ) ;
#259 = DIRECTION ( 'NONE',  ( -0.0000000000000000000, -1.836909530733566400E-016, 1.000000000000000000 ) ) ;
#260 = APPROVAL_PERSON_ORGANIZATION ( #186, #217, #39 ) ;
#261 = DIRECTION ( 'NONE',  ( 1.000000000000000000, -0.0000000000000000000, 0.0000000000000000000 ) ) ;
#262 = CARTESIAN_POINT ( 'NONE',  ( 6.123233995736766000E-017, 0.5000000000000000000, -0.03149686879082010100 ) ) ;
#263 = ORIENTED_EDGE ( 'NONE', *, *, #174, .F. ) ;
#264 = CONICAL_SURFACE ( 'NONE', #58, 0.5000000000000000000, 0.7397621912007592600 ) ;
#265 = CARTESIAN_POINT ( 'NONE',  ( 0.0000000000000000000, 4.063674214283929700E-018, 0.04008238171214058300 ) ) ;
#266 = APPROVAL_DATE_TIME ( #195, #217 ) ;
#267 = DIRECTION ( 'NONE',  ( -0.0000000000000000000, -1.836909530733566400E-016, 1.000000000000000000 ) ) ;
#268 = EDGE_CURVE ( 'NONE', #194, #34, #328, .T. ) ;
#269 = EDGE_CURVE ( 'NONE', #310, #187, #109, .T. ) ;
#270 = CARTESIAN_POINT ( 'NONE',  ( 0.0000000000000000000, 0.4921644011519585900, 0.04008238171214068000 ) ) ;
#271 = LINE ( 'NONE', #239, #112 ) ;
#272 = EDGE_LOOP ( 'NONE', ( #60, #156, #190, #206 ) ) ;
#273 =( NAMED_UNIT ( * ) PLANE_ANGLE_UNIT ( ) SI_UNIT ( $, .RADIAN. ) );
#274 = CARTESIAN_POINT ( 'NONE',  ( 0.0000000000000000000, -1.003618610011459400E-015, 0.04008238171213949300 ) ) ;
#275 = ORIENTED_EDGE ( 'NONE', *, *, #268, .T. ) ;
#276 = VECTOR ( 'NONE', #259, 39.37007874015748100 ) ;
#277 = DIRECTION ( 'NONE',  ( 0.0000000000000000000, 1.836909530733459600E-016, -1.000000000000000000 ) ) ;
#278 = ORIENTED_EDGE ( 'NONE', *, *, #1, .F. ) ;
#279 = EDGE_CURVE ( 'NONE', #42, #138, #120, .T. ) ;
#280 = CONICAL_SURFACE ( 'NONE', #115, 0.4921644011519585900, 0.7397621912007852400 ) ;
#281 = CARTESIAN_POINT ( 'NONE',  ( 0.0000000000000000000, 6.717770958407744300E-016, -0.06220472440944874200 ) ) ;
#282 = ORIENTED_EDGE ( 'NONE', *, *, #269, .T. ) ;
#283 = LOCAL_TIME ( 11, 7, 41.00000000000000000, #212 ) ;
#284 = APPROVAL ( #24, 'UNSPECIFIED' ) ;
#285 = PERSON ( 'UNSPECIFIED', 'UNSPECIFIED', 'UNSPECIFIED', ('UNSPECIFIED'), ('UNSPECIFIED'), ('UNSPECIFIED') ) ;
#286 = AXIS2_PLACEMENT_3D ( 'NONE', #83, #228, #202 ) ;
#287 = CARTESIAN_POINT ( 'NONE',  ( 0.0000000000000000000, 0.0000000000000000000, 0.06220472440944882500 ) ) ;
#288 = CC_DESIGN_APPROVAL ( #284, ( #69 ) ) ;
#289 = DIRECTION ( 'NONE',  ( -0.0000000000000000000, -1.836909530733459600E-016, 1.000000000000000000 ) ) ;
#290 = SPHERICAL_SURFACE ( 'NONE', #29, 5.485748031496062700 ) ;
#291 = CIRCLE ( 'NONE', #286, 5.485748031496063600 ) ;
#292 = UNCERTAINTY_MEASURE_WITH_UNIT (LENGTH_MEASURE( 1.000000000000000100E-005 ), #91, 'distance_accuracy_value', 'NONE');
#293 = DIRECTION ( 'NONE',  ( 0.0000000000000000000, -1.000000000000000000, -1.878145495644180800E-016 ) ) ;
#294 = AXIS2_PLACEMENT_3D ( 'NONE', #274, #28, #98 ) ;
#295 = APPROVAL_ROLE ( '' ) ;
#296 = ORIENTED_EDGE ( 'NONE', *, *, #88, .F. ) ;
#297 = AXIS2_PLACEMENT_3D ( 'NONE', #209, #261, #80 ) ;
#298 = ADVANCED_FACE ( 'NONE', ( #329 ), #253, .T. ) ;
#299 = SHAPE_DEFINITION_REPRESENTATION ( #99, #211 ) ;
#300 = LINE ( 'NONE', #270, #85 ) ;
#301 = DIRECTION ( 'NONE',  ( 0.0000000000000000000, -1.000000000000000000, -1.878145495644180800E-016 ) ) ;
#302 = LINE ( 'NONE', #231, #65 ) ;
#303 = CARTESIAN_POINT ( 'NONE',  ( 6.027275585250200100E-017, -0.4921644011519585900, 0.04008238171214048600 ) ) ;
#304 = EDGE_LOOP ( 'NONE', ( #250, #282, #137 ) ) ;
#305 = PERSON_AND_ORGANIZATION_ROLE ( 'design_owner' ) ;
#306 = ORIENTED_EDGE ( 'NONE', *, *, #64, .T. ) ;
#307 = LINE ( 'NONE', #165, #100 ) ;
#308 = APPLICATION_CONTEXT ( 'configuration controlled 3d designs of mechanical parts and assemblies' ) ;
#309 = DIRECTION ( 'NONE',  ( 0.0000000000000000000, 1.000000000000000000, 1.908046875442635600E-016 ) ) ;
#310 = VERTEX_POINT ( 'NONE', #281 ) ;
#311 = ORIENTED_EDGE ( 'NONE', *, *, #72, .T. ) ;
#312 = APPROVAL_PERSON_ORGANIZATION ( #157, #284, #295 ) ;
#313 = CARTESIAN_POINT ( 'NONE',  ( 0.0000000000000000000, 1.003618610011459400E-015, -0.04008238171213949300 ) ) ;
#314 = ORIENTED_EDGE ( 'NONE', *, *, #222, .T. ) ;
#315 = VERTEX_POINT ( 'NONE', #262 ) ;
#316 = LOCAL_TIME ( 11, 7, 41.00000000000000000, #252 ) ;
#317 = CARTESIAN_POINT ( 'NONE',  ( 0.0000000000000000000, 5.640755265424923100E-018, 0.03149686879082018400 ) ) ;
#318 = EDGE_CURVE ( 'NONE', #315, #194, #205, .T. ) ;
#319 = EDGE_LOOP ( 'NONE', ( #238, #306, #263, #278 ) ) ;
#320 = PERSON_AND_ORGANIZATION_ROLE ( 'creator' ) ;
#321 = PERSON_AND_ORGANIZATION ( #285, #258 ) ;
#322 = CC_DESIGN_PERSON_AND_ORGANIZATION_ASSIGNMENT ( #111, #93, ( #69 ) ) ;
#323 = LINE ( 'NONE', #303, #67 ) ;
#324 = EDGE_LOOP ( 'NONE', ( #119, #256, #143 ) ) ;
#325 = COORDINATED_UNIVERSAL_TIME_OFFSET ( 5, 0, .BEHIND. ) ;
#326 = ADVANCED_FACE ( 'NONE', ( #59 ), #280, .T. ) ;
#327 = CARTESIAN_POINT ( 'NONE',  ( 0.0000000000000000000, 1.721213495944943200E-017, -0.03149686879082018400 ) ) ;
#328 = LINE ( 'NONE', #237, #276 ) ;
#329 = FACE_OUTER_BOUND ( 'NONE', #86, .T. ) ;
#330 = EDGE_LOOP ( 'NONE', ( #296, #102, #275, #311 ) ) ;
ENDSEC;
END-ISO-10303-21;
