ISO-10303-21;
HEADER;
FILE_DESCRIPTION (( 'STEP AP203' ),
    '1' );
FILE_NAME ('Web Model 68549.STEP',
    '2017-02-01T13:30:59',
    ( '' ),
    ( '' ),
    'SwSTEP 2.0',
    'SolidWorks 2016',
    '' );
FILE_SCHEMA (( 'CONFIG_CONTROL_DESIGN' ));
ENDSEC;

DATA;
#1 = FACE_OUTER_BOUND ( 'NONE', #151, .T. ) ;
#2 = VERTEX_POINT ( 'NONE', #45 ) ;
#3 = DIRECTION ( 'NONE',  ( 1.156482317317871500E-016, 0.0000000000000000000, 1.000000000000000000 ) ) ;
#4 = ADVANCED_FACE ( 'NONE', ( #217 ), #5, .F. ) ;
#5 = PLANE ( 'NONE',  #287 ) ;
#6 = APPLICATION_PROTOCOL_DEFINITION ( 'international standard', 'config_control_design', 1994, #308 ) ;
#7 = LINE ( 'NONE', #177, #314 ) ;
#8 = CARTESIAN_POINT ( 'NONE',  ( 15.00000000000000000, 15.00000000000000000, 0.0000000000000000000 ) ) ;
#9 = DATE_AND_TIME ( #247, #24 ) ;
#10 = PLANE ( 'NONE',  #26 ) ;
#11 = ADVANCED_FACE ( 'NONE', ( #197 ), #10, .F. ) ;
#12 = ORIENTED_EDGE ( 'NONE', *, *, #190, .T. ) ;
#13 = AXIS2_PLACEMENT_3D ( 'NONE', #185, #312, #254 ) ;
#14 = DIRECTION ( 'NONE',  ( -0.7071067811865474600, 0.0000000000000000000, -0.7071067811865474600 ) ) ;
#15 = APPROVAL_DATE_TIME ( #133, #69 ) ;
#16 = ORIENTED_EDGE ( 'NONE', *, *, #63, .T. ) ;
#17 = EDGE_CURVE ( 'NONE', #224, #239, #278, .T. ) ;
#18 = DIRECTION ( 'NONE',  ( -0.0000000000000000000, -0.0000000000000000000, 1.000000000000000000 ) ) ;
#19 = PRODUCT_DEFINITION ( 'UNKNOWN', '', #144, #42 ) ;
#20 = DIRECTION ( 'NONE',  ( 0.0000000000000000000, -1.000000000000000000, 0.0000000000000000000 ) ) ;
#21 = ORIENTED_EDGE ( 'NONE', *, *, #152, .T. ) ;
#22 = DIRECTION ( 'NONE',  ( -0.0000000000000000000, -1.000000000000000000, -0.0000000000000000000 ) ) ;
#23 = APPROVAL_STATUS ( 'not_yet_approved' ) ;
#24 = LOCAL_TIME ( 8, 30, 59.00000000000000000, #294 ) ;
#25 = LINE ( 'NONE', #103, #101 ) ;
#26 = AXIS2_PLACEMENT_3D ( 'NONE', #280, #203, #276 ) ;
#27 = ORIENTED_EDGE ( 'NONE', *, *, #87, .T. ) ;
#28 = CC_DESIGN_APPROVAL ( #69, ( #144 ) ) ;
#29 = VERTEX_POINT ( 'NONE', #234 ) ;
#30 = EDGE_LOOP ( 'NONE', ( #27, #298, #61, #235 ) ) ;
#31 = LOCAL_TIME ( 8, 30, 59.00000000000000000, #195 ) ;
#32 = ORIENTED_EDGE ( 'NONE', *, *, #152, .F. ) ;
#33 = CC_DESIGN_DATE_AND_TIME_ASSIGNMENT ( #275, #293, ( #19 ) ) ;
#34 = CARTESIAN_POINT ( 'NONE',  ( -1.734723475976807100E-015, 15.00000000000000000, -15.00000000000000000 ) ) ;
#35 = PLANE ( 'NONE',  #55 ) ;
#36 = ORIENTED_EDGE ( 'NONE', *, *, #87, .F. ) ;
#37 = ORIENTED_EDGE ( 'NONE', *, *, #315, .F. ) ;
#38 = CARTESIAN_POINT ( 'NONE',  ( -1.734723475976807100E-015, 0.0000000000000000000, -15.00000000000000000 ) ) ;
#39 = APPROVAL_STATUS ( 'not_yet_approved' ) ;
#40 = VECTOR ( 'NONE', #18, 1000.000000000000000 ) ;
#41 = CARTESIAN_POINT ( 'NONE',  ( 0.0000000000000000000, 15.00000000000000000, 0.0000000000000000000 ) ) ;
#42 = DESIGN_CONTEXT ( 'detailed design', #64, 'design' ) ;
#43 = VECTOR ( 'NONE', #14, 1000.000000000000100 ) ;
#44 = CC_DESIGN_PERSON_AND_ORGANIZATION_ASSIGNMENT ( #318, #53, ( #144 ) ) ;
#45 = CARTESIAN_POINT ( 'NONE',  ( 14.99999999999999800, 0.0000000000000000000, -15.00000000000000000 ) ) ;
#46 = ORIENTED_EDGE ( 'NONE', *, *, #262, .T. ) ;
#47 = DIRECTION ( 'NONE',  ( 0.7071067811865475700, 0.0000000000000000000, -0.7071067811865475700 ) ) ;
#48 = ORIENTED_EDGE ( 'NONE', *, *, #266, .T. ) ;
#49 = VECTOR ( 'NONE', #260, 1000.000000000000000 ) ;
#50 = DIRECTION ( 'NONE',  ( -1.156482317317871500E-016, 0.0000000000000000000, -1.000000000000000000 ) ) ;
#51 = EDGE_CURVE ( 'NONE', #208, #76, #170, .T. ) ;
#52 = PLANE ( 'NONE',  #265 ) ;
#53 = PERSON_AND_ORGANIZATION_ROLE ( 'design_supplier' ) ;
#54 = EDGE_LOOP ( 'NONE', ( #46, #154, #142, #21 ) ) ;
#55 = AXIS2_PLACEMENT_3D ( 'NONE', #321, #126, #3 ) ;
#56 = VECTOR ( 'NONE', #153, 1000.000000000000100 ) ;
#57 = EDGE_LOOP ( 'NONE', ( #12, #245, #122, #319 ) ) ;
#58 = LINE ( 'NONE', #233, #104 ) ;
#59 = COORDINATED_UNIVERSAL_TIME_OFFSET ( 5, 0, .BEHIND. ) ;
#60 = APPLICATION_PROTOCOL_DEFINITION ( 'international standard', 'config_control_design', 1994, #64 ) ;
#61 = ORIENTED_EDGE ( 'NONE', *, *, #143, .F. ) ;
#62 = CARTESIAN_POINT ( 'NONE',  ( 0.0000000000000000000, 0.0000000000000000000, 0.0000000000000000000 ) ) ;
#63 = EDGE_CURVE ( 'NONE', #189, #94, #243, .T. ) ;
#64 = APPLICATION_CONTEXT ( 'configuration controlled 3d designs of mechanical parts and assemblies' ) ;
#65 = ADVANCED_FACE ( 'NONE', ( #111 ), #130, .F. ) ;
#66 = CALENDAR_DATE ( 2017, 1, 2 ) ;
#67 = CARTESIAN_POINT ( 'NONE',  ( 0.0000000000000000000, 0.0000000000000000000, -15.00000000000000000 ) ) ;
#68 = CARTESIAN_POINT ( 'NONE',  ( 15.00000000000000000, 0.0000000000000000000, 0.0000000000000000000 ) ) ;
#69 = APPROVAL ( #23, 'UNSPECIFIED' ) ;
#70 = LINE ( 'NONE', #251, #250 ) ;
#71 = EDGE_LOOP ( 'NONE', ( #246, #297, #95 ) ) ;
#72 = DIRECTION ( 'NONE',  ( -1.156482317317871500E-016, 0.0000000000000000000, -1.000000000000000000 ) ) ;
#73 = PERSON_AND_ORGANIZATION_ROLE ( 'creator' ) ;
#74 = LOCAL_TIME ( 8, 30, 59.00000000000000000, #59 ) ;
#75 = SECURITY_CLASSIFICATION ( '', '', #96 ) ;
#76 = VERTEX_POINT ( 'NONE', #67 ) ;
#77 = EDGE_CURVE ( 'NONE', #29, #2, #128, .T. ) ;
#78 = COORDINATED_UNIVERSAL_TIME_OFFSET ( 5, 0, .BEHIND. ) ;
#79 = LINE ( 'NONE', #236, #198 ) ;
#80 = CARTESIAN_POINT ( 'NONE',  ( 0.0000000000000000000, 15.00000000000000000, 0.0000000000000000000 ) ) ;
#81 = ORIENTED_EDGE ( 'NONE', *, *, #63, .F. ) ;
#82 = PERSON_AND_ORGANIZATION ( #114, #279 ) ;
#83 = ORIENTED_EDGE ( 'NONE', *, *, #206, .F. ) ;
#84 = DIRECTION ( 'NONE',  ( 0.0000000000000000000, 0.0000000000000000000, -1.000000000000000000 ) ) ;
#85 = CC_DESIGN_PERSON_AND_ORGANIZATION_ASSIGNMENT ( #193, #73, ( #144 ) ) ;
#86 =( NAMED_UNIT ( * ) SI_UNIT ( $, .STERADIAN. ) SOLID_ANGLE_UNIT ( ) );
#87 = EDGE_CURVE ( 'NONE', #2, #189, #58, .T. ) ;
#88 =( NAMED_UNIT ( * ) PLANE_ANGLE_UNIT ( ) SI_UNIT ( $, .RADIAN. ) );
#89 = VERTEX_POINT ( 'NONE', #8 ) ;
#90 = LINE ( 'NONE', #222, #289 ) ;
#91 = DIRECTION ( 'NONE',  ( -1.000000000000000000, -0.0000000000000000000, -0.0000000000000000000 ) ) ;
#92 = AXIS2_PLACEMENT_3D ( 'NONE', #62, #223, #156 ) ;
#93 = CARTESIAN_POINT ( 'NONE',  ( -1.734723475976807100E-015, 15.00000000000000000, -15.00000000000000000 ) ) ;
#94 = VERTEX_POINT ( 'NONE', #155 ) ;
#95 = ORIENTED_EDGE ( 'NONE', *, *, #315, .T. ) ;
#96 = SECURITY_CLASSIFICATION_LEVEL ( 'unclassified' ) ;
#97 = LINE ( 'NONE', #93, #320 ) ;
#98 = APPROVAL ( #194, 'UNSPECIFIED' ) ;
#99 = PERSON_AND_ORGANIZATION ( #114, #279 ) ;
#100 = LINE ( 'NONE', #102, #213 ) ;
#101 = VECTOR ( 'NONE', #150, 1000.000000000000000 ) ;
#102 = CARTESIAN_POINT ( 'NONE',  ( 0.0000000000000000000, 0.0000000000000000000, 0.0000000000000000000 ) ) ;
#103 = CARTESIAN_POINT ( 'NONE',  ( 0.0000000000000000000, 0.0000000000000000000, 0.0000000000000000000 ) ) ;
#104 = VECTOR ( 'NONE', #91, 1000.000000000000000 ) ;
#105 = APPROVAL_ROLE ( '' ) ;
#106 = DIRECTION ( 'NONE',  ( -0.0000000000000000000, -1.000000000000000000, -0.0000000000000000000 ) ) ;
#107 = ORIENTED_EDGE ( 'NONE', *, *, #201, .F. ) ;
#108 = ADVANCED_FACE ( 'NONE', ( #296 ), #284, .F. ) ;
#109 = DIRECTION ( 'NONE',  ( -0.0000000000000000000, -1.000000000000000000, -0.0000000000000000000 ) ) ;
#110 = CARTESIAN_POINT ( 'NONE',  ( -1.734723475976807100E-015, 15.00000000000000000, -15.00000000000000000 ) ) ;
#111 = FACE_OUTER_BOUND ( 'NONE', #71, .T. ) ;
#112 = DIRECTION ( 'NONE',  ( -0.7071067811865474600, 0.0000000000000000000, -0.7071067811865474600 ) ) ;
#113 = CALENDAR_DATE ( 2017, 1, 2 ) ;
#114 = PERSON ( 'UNSPECIFIED', 'UNSPECIFIED', 'UNSPECIFIED', ('UNSPECIFIED'), ('UNSPECIFIED'), ('UNSPECIFIED') ) ;
#115 = CARTESIAN_POINT ( 'NONE',  ( 14.99999999999999800, 15.00000000000000000, -15.00000000000000000 ) ) ;
#116 = CC_DESIGN_SECURITY_CLASSIFICATION ( #75, ( #144 ) ) ;
#117 = ORIENTED_EDGE ( 'NONE', *, *, #237, .F. ) ;
#118 = CARTESIAN_POINT ( 'NONE',  ( 0.0000000000000000000, 15.00000000000000000, -15.00000000000000000 ) ) ;
#119 = CC_DESIGN_APPROVAL ( #98, ( #75 ) ) ;
#120 = APPROVAL_PERSON_ORGANIZATION ( #82, #69, #242 ) ;
#121 = LINE ( 'NONE', #252, #56 ) ;
#122 = ORIENTED_EDGE ( 'NONE', *, *, #218, .F. ) ;
#123 = EDGE_LOOP ( 'NONE', ( #140, #301, #196 ) ) ;
#124 = PERSON_AND_ORGANIZATION ( #114, #279 ) ;
#125 = DIRECTION ( 'NONE',  ( -0.0000000000000000000, -0.0000000000000000000, 1.000000000000000000 ) ) ;
#126 = DIRECTION ( 'NONE',  ( -1.000000000000000000, 0.0000000000000000000, 1.156482317317871500E-016 ) ) ;
#127 = APPROVAL ( #39, 'UNSPECIFIED' ) ;
#128 = LINE ( 'NONE', #179, #49 ) ;
#129 = ADVANCED_FACE ( 'NONE', ( #253 ), #182, .T. ) ;
#130 = PLANE ( 'NONE',  #13 ) ;
#131 = DIRECTION ( 'NONE',  ( 0.7071067811865474600, 0.0000000000000000000, 0.7071067811865474600 ) ) ;
#132 = DIRECTION ( 'NONE',  ( 0.7071067811865474600, 0.0000000000000000000, 0.7071067811865474600 ) ) ;
#133 = DATE_AND_TIME ( #113, #31 ) ;
#134 = PRODUCT_DEFINITION_SHAPE ( 'NONE', 'NONE',  #19 ) ;
#135 = ADVANCED_BREP_SHAPE_REPRESENTATION ( 'Web Model 68549', ( #139, #215, #92 ), #303 ) ;
#136 = CARTESIAN_POINT ( 'NONE',  ( 15.00000000000000000, 15.00000000000000000, 0.0000000000000000000 ) ) ;
#137 = DIRECTION ( 'NONE',  ( 0.0000000000000000000, -0.0000000000000000000, -1.000000000000000000 ) ) ;
#138 = VECTOR ( 'NONE', #160, 1000.000000000000100 ) ;
#139 = MANIFOLD_SOLID_BREP ( 'Extrude1', #211 ) ;
#140 = ORIENTED_EDGE ( 'NONE', *, *, #218, .T. ) ;
#141 = APPROVAL_DATE_TIME ( #174, #127 ) ;
#142 = ORIENTED_EDGE ( 'NONE', *, *, #17, .F. ) ;
#143 = EDGE_CURVE ( 'NONE', #29, #290, #97, .T. ) ;
#144 = PRODUCT_DEFINITION_FORMATION_WITH_SPECIFIED_SOURCE ( 'ANY', '', #283, .NOT_KNOWN. ) ;
#145 = FACE_OUTER_BOUND ( 'NONE', #123, .T. ) ;
#146 = ADVANCED_FACE ( 'NONE', ( #145 ), #52, .F. ) ;
#147 = EDGE_LOOP ( 'NONE', ( #117, #226, #267 ) ) ;
#148 = PERSON_AND_ORGANIZATION ( #114, #279 ) ;
#149 = LINE ( 'NONE', #207, #138 ) ;
#150 = DIRECTION ( 'NONE',  ( 1.000000000000000000, 0.0000000000000000000, 0.0000000000000000000 ) ) ;
#151 = EDGE_LOOP ( 'NONE', ( #270, #32, #107, #171 ) ) ;
#152 = EDGE_CURVE ( 'NONE', #224, #216, #79, .T. ) ;
#153 = DIRECTION ( 'NONE',  ( -0.7071067811865474600, 0.0000000000000000000, -0.7071067811865474600 ) ) ;
#154 = ORIENTED_EDGE ( 'NONE', *, *, #302, .F. ) ;
#155 = CARTESIAN_POINT ( 'NONE',  ( 15.00000000000000000, 0.0000000000000000000, 0.0000000000000000000 ) ) ;
#156 = DIRECTION ( 'NONE',  ( 1.000000000000000000, 0.0000000000000000000, 0.0000000000000000000 ) ) ;
#157 = AXIS2_PLACEMENT_3D ( 'NONE', #292, #20, #137 ) ;
#158 = DIRECTION ( 'NONE',  ( -0.7071067811865475700, 0.0000000000000000000, 0.7071067811865475700 ) ) ;
#159 = DIRECTION ( 'NONE',  ( -1.000000000000000000, -0.0000000000000000000, -0.0000000000000000000 ) ) ;
#160 = DIRECTION ( 'NONE',  ( 0.7071067811865474600, 0.0000000000000000000, 0.7071067811865474600 ) ) ;
#161 = ORIENTED_EDGE ( 'NONE', *, *, #51, .T. ) ;
#162 = PRODUCT_RELATED_PRODUCT_CATEGORY ( 'detail', '', ( #283 ) ) ;
#163 = CARTESIAN_POINT ( 'NONE',  ( 0.0000000000000000000, 15.00000000000000000, 0.0000000000000000000 ) ) ;
#164 = FACE_OUTER_BOUND ( 'NONE', #57, .T. ) ;
#165 = DIRECTION ( 'NONE',  ( 0.0000000000000000000, 0.0000000000000000000, -1.000000000000000000 ) ) ;
#166 = LINE ( 'NONE', #68, #229 ) ;
#167 = CC_DESIGN_APPROVAL ( #127, ( #19 ) ) ;
#168 = CALENDAR_DATE ( 2017, 1, 2 ) ;
#169 = DATE_TIME_ROLE ( 'classification_date' ) ;
#170 = LINE ( 'NONE', #232, #43 ) ;
#171 = ORIENTED_EDGE ( 'NONE', *, *, #206, .T. ) ;
#172 = VECTOR ( 'NONE', #72, 1000.000000000000000 ) ;
#173 = LINE ( 'NONE', #163, #40 ) ;
#174 = DATE_AND_TIME ( #168, #74 ) ;
#175 = EDGE_LOOP ( 'NONE', ( #261, #81, #36 ) ) ;
#176 = VECTOR ( 'NONE', #230, 1000.000000000000000 ) ;
#177 = CARTESIAN_POINT ( 'NONE',  ( 15.00000000000000000, 15.00000000000000000, 0.0000000000000000000 ) ) ;
#178 = ORIENTED_EDGE ( 'NONE', *, *, #302, .T. ) ;
#179 = CARTESIAN_POINT ( 'NONE',  ( 14.99999999999999800, 15.00000000000000000, -15.00000000000000000 ) ) ;
#180 = PERSON_AND_ORGANIZATION_ROLE ( 'design_owner' ) ;
#181 = ADVANCED_FACE ( 'NONE', ( #264 ), #186, .T. ) ;
#182 = PLANE ( 'NONE',  #285 ) ;
#183 = LOCAL_TIME ( 8, 30, 59.00000000000000000, #78 ) ;
#184 = CC_DESIGN_PERSON_AND_ORGANIZATION_ASSIGNMENT ( #268, #214, ( #75 ) ) ;
#185 = CARTESIAN_POINT ( 'NONE',  ( 0.0000000000000000000, 15.00000000000000000, 0.0000000000000000000 ) ) ;
#186 = PLANE ( 'NONE',  #157 ) ;
#187 = EDGE_CURVE ( 'NONE', #290, #89, #149, .T. ) ;
#188 = CARTESIAN_POINT ( 'NONE',  ( 15.00000000000000000, 0.0000000000000000000, 0.0000000000000000000 ) ) ;
#189 = VERTEX_POINT ( 'NONE', #313 ) ;
#190 = EDGE_CURVE ( 'NONE', #94, #2, #166, .T. ) ;
#191 = CC_DESIGN_DATE_AND_TIME_ASSIGNMENT ( #212, #169, ( #75 ) ) ;
#192 = ORIENTED_EDGE ( 'NONE', *, *, #281, .F. ) ;
#193 = PERSON_AND_ORGANIZATION ( #114, #279 ) ;
#194 = APPROVAL_STATUS ( 'not_yet_approved' ) ;
#195 = COORDINATED_UNIVERSAL_TIME_OFFSET ( 5, 0, .BEHIND. ) ;
#196 = ORIENTED_EDGE ( 'NONE', *, *, #187, .T. ) ;
#197 = FACE_OUTER_BOUND ( 'NONE', #30, .T. ) ;
#198 = VECTOR ( 'NONE', #286, 1000.000000000000000 ) ;
#199 =( LENGTH_UNIT ( ) NAMED_UNIT ( * ) SI_UNIT ( .MILLI., .METRE. ) );
#200 = CARTESIAN_POINT ( 'NONE',  ( 0.0000000000000000000, 15.00000000000000000, 0.0000000000000000000 ) ) ;
#201 = EDGE_CURVE ( 'NONE', #221, #224, #173, .T. ) ;
#202 = CALENDAR_DATE ( 2017, 1, 2 ) ;
#203 = DIRECTION ( 'NONE',  ( 0.0000000000000000000, 0.0000000000000000000, 1.000000000000000000 ) ) ;
#204 = LOCAL_TIME ( 8, 30, 59.00000000000000000, #271 ) ;
#205 = CARTESIAN_POINT ( 'NONE',  ( 0.0000000000000000000, 15.00000000000000000, -15.00000000000000000 ) ) ;
#206 = EDGE_CURVE ( 'NONE', #221, #76, #307, .T. ) ;
#207 = CARTESIAN_POINT ( 'NONE',  ( -1.734723475976807100E-015, 15.00000000000000000, -15.00000000000000000 ) ) ;
#208 = VERTEX_POINT ( 'NONE', #188 ) ;
#209 = VECTOR ( 'NONE', #131, 1000.000000000000100 ) ;
#210 = CARTESIAN_POINT ( 'NONE',  ( 0.0000000000000000000, 0.0000000000000000000, 0.0000000000000000000 ) ) ;
#211 = CLOSED_SHELL ( 'NONE', ( #277, #310, #108, #65, #181 ) ) ;
#212 = DATE_AND_TIME ( #202, #183 ) ;
#213 = VECTOR ( 'NONE', #125, 1000.000000000000000 ) ;
#214 = PERSON_AND_ORGANIZATION_ROLE ( 'classification_officer' ) ;
#215 = MANIFOLD_SOLID_BREP ( 'Extrude2', #238 ) ;
#216 = VERTEX_POINT ( 'NONE', #210 ) ;
#217 = FACE_OUTER_BOUND ( 'NONE', #273, .T. ) ;
#218 = EDGE_CURVE ( 'NONE', #89, #29, #306, .T. ) ;
#219 = FACE_OUTER_BOUND ( 'NONE', #54, .T. ) ;
#220 = SHAPE_DEFINITION_REPRESENTATION ( #134, #135 ) ;
#221 = VERTEX_POINT ( 'NONE', #205 ) ;
#222 = CARTESIAN_POINT ( 'NONE',  ( -1.734723475976807100E-015, 15.00000000000000000, -15.00000000000000000 ) ) ;
#223 = DIRECTION ( 'NONE',  ( 0.0000000000000000000, 0.0000000000000000000, 1.000000000000000000 ) ) ;
#224 = VERTEX_POINT ( 'NONE', #288 ) ;
#225 = DIRECTION ( 'NONE',  ( -0.0000000000000000000, -1.000000000000000000, -0.0000000000000000000 ) ) ;
#226 = ORIENTED_EDGE ( 'NONE', *, *, #51, .F. ) ;
#227 = PLANE ( 'NONE',  #256 ) ;
#228 = PLANE ( 'NONE',  #269 ) ;
#229 = VECTOR ( 'NONE', #50, 1000.000000000000000 ) ;
#230 = DIRECTION ( 'NONE',  ( 1.000000000000000000, 0.0000000000000000000, 0.0000000000000000000 ) ) ;
#231 = CARTESIAN_POINT ( 'NONE',  ( 14.99999999999999800, 0.0000000000000000000, -15.00000000000000000 ) ) ;
#232 = CARTESIAN_POINT ( 'NONE',  ( 15.00000000000000000, 0.0000000000000000000, 0.0000000000000000000 ) ) ;
#233 = CARTESIAN_POINT ( 'NONE',  ( -1.734723475976807100E-015, 0.0000000000000000000, -15.00000000000000000 ) ) ;
#234 = CARTESIAN_POINT ( 'NONE',  ( 14.99999999999999800, 15.00000000000000000, -15.00000000000000000 ) ) ;
#235 = ORIENTED_EDGE ( 'NONE', *, *, #77, .T. ) ;
#236 = CARTESIAN_POINT ( 'NONE',  ( 0.0000000000000000000, 15.00000000000000000, 0.0000000000000000000 ) ) ;
#237 = EDGE_CURVE ( 'NONE', #76, #216, #100, .T. ) ;
#238 = CLOSED_SHELL ( 'NONE', ( #258, #11, #4, #146, #129 ) ) ;
#239 = VERTEX_POINT ( 'NONE', #316 ) ;
#240 = VECTOR ( 'NONE', #22, 1000.000000000000000 ) ;
#241 = DIRECTION ( 'NONE',  ( 0.0000000000000000000, -1.000000000000000000, 0.0000000000000000000 ) ) ;
#242 = APPROVAL_ROLE ( '' ) ;
#243 = LINE ( 'NONE', #38, #209 ) ;
#244 = APPROVAL_DATE_TIME ( #9, #98 ) ;
#245 = ORIENTED_EDGE ( 'NONE', *, *, #77, .F. ) ;
#246 = ORIENTED_EDGE ( 'NONE', *, *, #201, .T. ) ;
#247 = CALENDAR_DATE ( 2017, 1, 2 ) ;
#248 = CC_DESIGN_PERSON_AND_ORGANIZATION_ASSIGNMENT ( #124, #180, ( #283 ) ) ;
#249 = MECHANICAL_CONTEXT ( 'NONE', #308, 'mechanical' ) ;
#250 = VECTOR ( 'NONE', #109, 1000.000000000000000 ) ;
#251 = CARTESIAN_POINT ( 'NONE',  ( 15.00000000000000000, 15.00000000000000000, 0.0000000000000000000 ) ) ;
#252 = CARTESIAN_POINT ( 'NONE',  ( 15.00000000000000000, 15.00000000000000000, 0.0000000000000000000 ) ) ;
#253 = FACE_OUTER_BOUND ( 'NONE', #175, .T. ) ;
#254 = DIRECTION ( 'NONE',  ( 0.0000000000000000000, -0.0000000000000000000, -1.000000000000000000 ) ) ;
#255 = PERSON_AND_ORGANIZATION ( #114, #279 ) ;
#256 = AXIS2_PLACEMENT_3D ( 'NONE', #80, #304, #84 ) ;
#257 = DIRECTION ( 'NONE',  ( 0.0000000000000000000, -1.000000000000000000, 0.0000000000000000000 ) ) ;
#258 = ADVANCED_FACE ( 'NONE', ( #164 ), #35, .F. ) ;
#259 = DIRECTION ( 'NONE',  ( 0.0000000000000000000, 0.0000000000000000000, -1.000000000000000000 ) ) ;
#260 = DIRECTION ( 'NONE',  ( -0.0000000000000000000, -1.000000000000000000, -0.0000000000000000000 ) ) ;
#261 = ORIENTED_EDGE ( 'NONE', *, *, #190, .F. ) ;
#262 = EDGE_CURVE ( 'NONE', #216, #208, #25, .T. ) ;
#263 = APPROVAL_ROLE ( '' ) ;
#264 = FACE_OUTER_BOUND ( 'NONE', #147, .T. ) ;
#265 = AXIS2_PLACEMENT_3D ( 'NONE', #115, #241, #165 ) ;
#266 = EDGE_CURVE ( 'NONE', #290, #189, #90, .T. ) ;
#267 = ORIENTED_EDGE ( 'NONE', *, *, #262, .F. ) ;
#268 = PERSON_AND_ORGANIZATION ( #114, #279 ) ;
#269 = AXIS2_PLACEMENT_3D ( 'NONE', #200, #272, #305 ) ;
#270 = ORIENTED_EDGE ( 'NONE', *, *, #237, .T. ) ;
#271 = COORDINATED_UNIVERSAL_TIME_OFFSET ( 5, 0, .BEHIND. ) ;
#272 = DIRECTION ( 'NONE',  ( 0.0000000000000000000, 0.0000000000000000000, -1.000000000000000000 ) ) ;
#273 = EDGE_LOOP ( 'NONE', ( #16, #192, #282, #48 ) ) ;
#274 = EDGE_LOOP ( 'NONE', ( #161, #83, #37, #178 ) ) ;
#275 = DATE_AND_TIME ( #66, #204 ) ;
#276 = DIRECTION ( 'NONE',  ( 1.000000000000000000, 0.0000000000000000000, -0.0000000000000000000 ) ) ;
#277 = ADVANCED_FACE ( 'NONE', ( #1 ), #227, .F. ) ;
#278 = LINE ( 'NONE', #41, #176 ) ;
#279 = ORGANIZATION ( 'UNSPECIFIED', 'UNSPECIFIED', '' ) ;
#280 = CARTESIAN_POINT ( 'NONE',  ( -1.734723475976807100E-015, 15.00000000000000000, -15.00000000000000000 ) ) ;
#281 = EDGE_CURVE ( 'NONE', #89, #94, #70, .T. ) ;
#282 = ORIENTED_EDGE ( 'NONE', *, *, #187, .F. ) ;
#283 = PRODUCT ( 'Web Model 68549', 'Web Model 68549', '', ( #249 ) ) ;
#284 = PLANE ( 'NONE',  #295 ) ;
#285 = AXIS2_PLACEMENT_3D ( 'NONE', #231, #257, #259 ) ;
#286 = DIRECTION ( 'NONE',  ( -0.0000000000000000000, -1.000000000000000000, -0.0000000000000000000 ) ) ;
#287 = AXIS2_PLACEMENT_3D ( 'NONE', #110, #47, #112 ) ;
#288 = CARTESIAN_POINT ( 'NONE',  ( 0.0000000000000000000, 15.00000000000000000, 0.0000000000000000000 ) ) ;
#289 = VECTOR ( 'NONE', #225, 1000.000000000000000 ) ;
#290 = VERTEX_POINT ( 'NONE', #34 ) ;
#291 = APPROVAL_PERSON_ORGANIZATION ( #99, #98, #263 ) ;
#292 = CARTESIAN_POINT ( 'NONE',  ( 0.0000000000000000000, 0.0000000000000000000, 0.0000000000000000000 ) ) ;
#293 = DATE_TIME_ROLE ( 'creation_date' ) ;
#294 = COORDINATED_UNIVERSAL_TIME_OFFSET ( 5, 0, .BEHIND. ) ;
#295 = AXIS2_PLACEMENT_3D ( 'NONE', #309, #158, #132 ) ;
#296 = FACE_OUTER_BOUND ( 'NONE', #274, .T. ) ;
#297 = ORIENTED_EDGE ( 'NONE', *, *, #17, .T. ) ;
#298 = ORIENTED_EDGE ( 'NONE', *, *, #266, .F. ) ;
#299 = UNCERTAINTY_MEASURE_WITH_UNIT (LENGTH_MEASURE( 1.000000000000000100E-005 ), #199, 'distance_accuracy_value', 'NONE');
#300 = APPROVAL_PERSON_ORGANIZATION ( #255, #127, #105 ) ;
#301 = ORIENTED_EDGE ( 'NONE', *, *, #143, .T. ) ;
#302 = EDGE_CURVE ( 'NONE', #239, #208, #7, .T. ) ;
#303 =( GEOMETRIC_REPRESENTATION_CONTEXT ( 3 ) GLOBAL_UNCERTAINTY_ASSIGNED_CONTEXT ( ( #299 ) ) GLOBAL_UNIT_ASSIGNED_CONTEXT ( ( #199, #88, #86 ) ) REPRESENTATION_CONTEXT ( 'NONE', 'WORKASPACE' ) );
#304 = DIRECTION ( 'NONE',  ( 1.000000000000000000, -0.0000000000000000000, 0.0000000000000000000 ) ) ;
#305 = DIRECTION ( 'NONE',  ( -1.000000000000000000, 0.0000000000000000000, -0.0000000000000000000 ) ) ;
#306 = LINE ( 'NONE', #136, #172 ) ;
#307 = LINE ( 'NONE', #118, #240 ) ;
#308 = APPLICATION_CONTEXT ( 'configuration controlled 3d designs of mechanical parts and assemblies' ) ;
#309 = CARTESIAN_POINT ( 'NONE',  ( 15.00000000000000000, 15.00000000000000000, 0.0000000000000000000 ) ) ;
#310 = ADVANCED_FACE ( 'NONE', ( #219 ), #228, .F. ) ;
#311 = CC_DESIGN_PERSON_AND_ORGANIZATION_ASSIGNMENT ( #148, #317, ( #19 ) ) ;
#312 = DIRECTION ( 'NONE',  ( 0.0000000000000000000, -1.000000000000000000, 0.0000000000000000000 ) ) ;
#313 = CARTESIAN_POINT ( 'NONE',  ( -1.734723475976807100E-015, 0.0000000000000000000, -15.00000000000000000 ) ) ;
#314 = VECTOR ( 'NONE', #106, 1000.000000000000000 ) ;
#315 = EDGE_CURVE ( 'NONE', #239, #221, #121, .T. ) ;
#316 = CARTESIAN_POINT ( 'NONE',  ( 15.00000000000000000, 15.00000000000000000, 0.0000000000000000000 ) ) ;
#317 = PERSON_AND_ORGANIZATION_ROLE ( 'creator' ) ;
#318 = PERSON_AND_ORGANIZATION ( #114, #279 ) ;
#319 = ORIENTED_EDGE ( 'NONE', *, *, #281, .T. ) ;
#320 = VECTOR ( 'NONE', #159, 1000.000000000000000 ) ;
#321 = CARTESIAN_POINT ( 'NONE',  ( 15.00000000000000000, 15.00000000000000000, 0.0000000000000000000 ) ) ;
ENDSEC;
END-ISO-10303-21;
