ISO-10303-21;
HEADER;
FILE_DESCRIPTION (( 'STEP AP203' ),
    '1' );
FILE_NAME ('Web Model 65923.STEP',
    '2017-01-31T19:31:49',
    ( '' ),
    ( '' ),
    'SwSTEP 2.0',
    'SolidWorks 2016',
    '' );
FILE_SCHEMA (( 'CONFIG_CONTROL_DESIGN' ));
ENDSEC;

DATA;
#1 = DATE_AND_TIME ( #32, #63 ) ;
#2 = APPLICATION_CONTEXT ( 'configuration controlled 3d designs of mechanical parts and assemblies' ) ;
#3 = APPROVAL_PERSON_ORGANIZATION ( #142, #104, #175 ) ;
#4 = DIRECTION ( 'NONE',  ( 1.000000000000000000, 0.0000000000000000000, 0.0000000000000000000 ) ) ;
#5 = ADVANCED_FACE ( 'NONE', ( #56 ), #81, .T. ) ;
#6 = CC_DESIGN_DATE_AND_TIME_ASSIGNMENT ( #108, #138, ( #95 ) ) ;
#7 = AXIS2_PLACEMENT_3D ( 'NONE', #94, #163, #79 ) ;
#8 = PERSON ( 'UNSPECIFIED', 'UNSPECIFIED', 'UNSPECIFIED', ('UNSPECIFIED'), ('UNSPECIFIED'), ('UNSPECIFIED') ) ;
#9 = VERTEX_POINT ( 'NONE', #114 ) ;
#10 = PLANE ( 'NONE',  #109 ) ;
#11 = DIRECTION ( 'NONE',  ( -1.000000000000000000, 0.0000000000000000000, 0.0000000000000000000 ) ) ;
#12 = CC_DESIGN_DATE_AND_TIME_ASSIGNMENT ( #33, #27, ( #39 ) ) ;
#13 = VERTEX_POINT ( 'NONE', #70 ) ;
#14 = PERSON_AND_ORGANIZATION_ROLE ( 'design_owner' ) ;
#15 = APPLICATION_PROTOCOL_DEFINITION ( 'international standard', 'config_control_design', 1994, #2 ) ;
#16 = ORIENTED_EDGE ( 'NONE', *, *, #128, .T. ) ;
#17 =( LENGTH_UNIT ( ) NAMED_UNIT ( * ) SI_UNIT ( .MILLI., .METRE. ) );
#18 = LOCAL_TIME ( 14, 31, 49.00000000000000000, #90 ) ;
#19 = CC_DESIGN_SECURITY_CLASSIFICATION ( #39, ( #122 ) ) ;
#20 = UNCERTAINTY_MEASURE_WITH_UNIT (LENGTH_MEASURE( 1.000000000000000100E-005 ), #17, 'distance_accuracy_value', 'NONE');
#21 = FACE_OUTER_BOUND ( 'NONE', #88, .T. ) ;
#22 = CARTESIAN_POINT ( 'NONE',  ( 0.0000000000000000000, 0.0000000000000000000, 0.0000000000000000000 ) ) ;
#23 = CARTESIAN_POINT ( 'NONE',  ( 0.0000000000000000000, 0.0000000000000000000, 2.000000000000000000 ) ) ;
#24 = CC_DESIGN_PERSON_AND_ORGANIZATION_ASSIGNMENT ( #42, #92, ( #122 ) ) ;
#25 = AXIS2_PLACEMENT_3D ( 'NONE', #34, #86, #83 ) ;
#26 = PERSON_AND_ORGANIZATION ( #8, #137 ) ;
#27 = DATE_TIME_ROLE ( 'classification_date' ) ;
#28 = COORDINATED_UNIVERSAL_TIME_OFFSET ( 5, 0, .BEHIND. ) ;
#29 = COORDINATED_UNIVERSAL_TIME_OFFSET ( 5, 0, .BEHIND. ) ;
#30 =( NAMED_UNIT ( * ) SI_UNIT ( $, .STERADIAN. ) SOLID_ANGLE_UNIT ( ) );
#31 = CIRCLE ( 'NONE', #111, 10.00000000000000000 ) ;
#32 = CALENDAR_DATE ( 2017, 31, 1 ) ;
#33 = DATE_AND_TIME ( #64, #100 ) ;
#34 = CARTESIAN_POINT ( 'NONE',  ( 0.0000000000000000000, 0.0000000000000000000, 2.000000000000000000 ) ) ;
#35 = ORIENTED_EDGE ( 'NONE', *, *, #121, .T. ) ;
#36 = CC_DESIGN_APPROVAL ( #47, ( #39 ) ) ;
#37 = COORDINATED_UNIVERSAL_TIME_OFFSET ( 5, 0, .BEHIND. ) ;
#38 = DIRECTION ( 'NONE',  ( -0.0000000000000000000, -0.0000000000000000000, -1.000000000000000000 ) ) ;
#39 = SECURITY_CLASSIFICATION ( '', '', #53 ) ;
#40 = CARTESIAN_POINT ( 'NONE',  ( 0.0000000000000000000, 0.0000000000000000000, 2.000000000000000000 ) ) ;
#41 = DIRECTION ( 'NONE',  ( 0.0000000000000000000, 0.0000000000000000000, 1.000000000000000000 ) ) ;
#42 = PERSON_AND_ORGANIZATION ( #8, #137 ) ;
#43 = CC_DESIGN_APPROVAL ( #104, ( #95 ) ) ;
#44 = AXIS2_PLACEMENT_3D ( 'NONE', #145, #69, #4 ) ;
#45 = LOCAL_TIME ( 14, 31, 49.00000000000000000, #136 ) ;
#46 = EDGE_CURVE ( 'NONE', #155, #13, #52, .T. ) ;
#47 = APPROVAL ( #93, 'UNSPECIFIED' ) ;
#48 = EDGE_CURVE ( 'NONE', #84, #155, #106, .T. ) ;
#49 = CARTESIAN_POINT ( 'NONE',  ( 10.00000000000000000, 1.224646799147353300E-015, 0.0000000000000000000 ) ) ;
#50 = DIRECTION ( 'NONE',  ( 0.0000000000000000000, 0.0000000000000000000, 1.000000000000000000 ) ) ;
#51 = CC_DESIGN_PERSON_AND_ORGANIZATION_ASSIGNMENT ( #154, #107, ( #95 ) ) ;
#52 = CIRCLE ( 'NONE', #44, 10.00000000000000000 ) ;
#53 = SECURITY_CLASSIFICATION_LEVEL ( 'unclassified' ) ;
#54 = CC_DESIGN_PERSON_AND_ORGANIZATION_ASSIGNMENT ( #97, #80, ( #39 ) ) ;
#55 = VECTOR ( 'NONE', #38, 1000.000000000000000 ) ;
#56 = FACE_OUTER_BOUND ( 'NONE', #113, .T. ) ;
#57 = CARTESIAN_POINT ( 'NONE',  ( 0.0000000000000000000, 0.0000000000000000000, 2.000000000000000000 ) ) ;
#58 = PERSON_AND_ORGANIZATION ( #8, #137 ) ;
#59 = CARTESIAN_POINT ( 'NONE',  ( 10.00000000000000000, 1.224646799147353300E-015, 2.000000000000000000 ) ) ;
#60 = APPROVAL ( #62, 'UNSPECIFIED' ) ;
#61 = PLANE ( 'NONE',  #103 ) ;
#62 = APPROVAL_STATUS ( 'not_yet_approved' ) ;
#63 = LOCAL_TIME ( 14, 31, 49.00000000000000000, #28 ) ;
#64 = CALENDAR_DATE ( 2017, 31, 1 ) ;
#65 = PERSON_AND_ORGANIZATION_ROLE ( 'design_supplier' ) ;
#66 = DIRECTION ( 'NONE',  ( 1.000000000000000000, 0.0000000000000000000, -0.0000000000000000000 ) ) ;
#67 = MECHANICAL_CONTEXT ( 'NONE', #2, 'mechanical' ) ;
#68 = FACE_OUTER_BOUND ( 'NONE', #124, .T. ) ;
#69 = DIRECTION ( 'NONE',  ( 0.0000000000000000000, 0.0000000000000000000, 1.000000000000000000 ) ) ;
#70 = CARTESIAN_POINT ( 'NONE',  ( -10.00000000000000000, 0.0000000000000000000, 0.0000000000000000000 ) ) ;
#71 = EDGE_CURVE ( 'NONE', #9, #84, #143, .T. ) ;
#72 = CC_DESIGN_APPROVAL ( #60, ( #122 ) ) ;
#73 = ORIENTED_EDGE ( 'NONE', *, *, #71, .T. ) ;
#74 = PRODUCT_DEFINITION_SHAPE ( 'NONE', 'NONE',  #95 ) ;
#75 = DIRECTION ( 'NONE',  ( 0.0000000000000000000, 0.0000000000000000000, 1.000000000000000000 ) ) ;
#76 = ORIENTED_EDGE ( 'NONE', *, *, #48, .F. ) ;
#77 = APPLICATION_CONTEXT ( 'configuration controlled 3d designs of mechanical parts and assemblies' ) ;
#78 = CLOSED_SHELL ( 'NONE', ( #85, #5, #158, #135 ) ) ;
#79 = DIRECTION ( 'NONE',  ( 1.000000000000000000, 0.0000000000000000000, 0.0000000000000000000 ) ) ;
#80 = PERSON_AND_ORGANIZATION_ROLE ( 'classification_officer' ) ;
#81 = CYLINDRICAL_SURFACE ( 'NONE', #25, 10.00000000000000000 ) ;
#82 = ADVANCED_BREP_SHAPE_REPRESENTATION ( 'Web Model 65923', ( #131, #7 ), #116 ) ;
#83 = DIRECTION ( 'NONE',  ( -1.000000000000000000, 0.0000000000000000000, 0.0000000000000000000 ) ) ;
#84 = VERTEX_POINT ( 'NONE', #59 ) ;
#85 = ADVANCED_FACE ( 'NONE', ( #68 ), #167, .T. ) ;
#86 = DIRECTION ( 'NONE',  ( -0.0000000000000000000, -0.0000000000000000000, -1.000000000000000000 ) ) ;
#87 = CARTESIAN_POINT ( 'NONE',  ( -10.00000000000000000, 0.0000000000000000000, 2.000000000000000000 ) ) ;
#88 = EDGE_LOOP ( 'NONE', ( #73, #35 ) ) ;
#89 = PRODUCT_RELATED_PRODUCT_CATEGORY ( 'detail', '', ( #168 ) ) ;
#90 = COORDINATED_UNIVERSAL_TIME_OFFSET ( 5, 0, .BEHIND. ) ;
#91 = VECTOR ( 'NONE', #150, 1000.000000000000000 ) ;
#92 = PERSON_AND_ORGANIZATION_ROLE ( 'creator' ) ;
#93 = APPROVAL_STATUS ( 'not_yet_approved' ) ;
#94 = CARTESIAN_POINT ( 'NONE',  ( 0.0000000000000000000, 0.0000000000000000000, 0.0000000000000000000 ) ) ;
#95 = PRODUCT_DEFINITION ( 'UNKNOWN', '', #122, #148 ) ;
#96 = ORIENTED_EDGE ( 'NONE', *, *, #165, .F. ) ;
#97 = PERSON_AND_ORGANIZATION ( #8, #137 ) ;
#98 = ORIENTED_EDGE ( 'NONE', *, *, #46, .T. ) ;
#99 = APPROVAL_DATE_TIME ( #115, #104 ) ;
#100 = LOCAL_TIME ( 14, 31, 49.00000000000000000, #29 ) ;
#101 = ORIENTED_EDGE ( 'NONE', *, *, #128, .F. ) ;
#102 = APPROVAL_STATUS ( 'not_yet_approved' ) ;
#103 = AXIS2_PLACEMENT_3D ( 'NONE', #57, #41, #66 ) ;
#104 = APPROVAL ( #102, 'UNSPECIFIED' ) ;
#105 = APPLICATION_PROTOCOL_DEFINITION ( 'international standard', 'config_control_design', 1994, #77 ) ;
#106 = LINE ( 'NONE', #171, #55 ) ;
#107 = PERSON_AND_ORGANIZATION_ROLE ( 'creator' ) ;
#108 = DATE_AND_TIME ( #112, #45 ) ;
#109 = AXIS2_PLACEMENT_3D ( 'NONE', #22, #75, #160 ) ;
#110 =( NAMED_UNIT ( * ) PLANE_ANGLE_UNIT ( ) SI_UNIT ( $, .RADIAN. ) );
#111 = AXIS2_PLACEMENT_3D ( 'NONE', #134, #119, #152 ) ;
#112 = CALENDAR_DATE ( 2017, 31, 1 ) ;
#113 = EDGE_LOOP ( 'NONE', ( #76, #172, #16, #151 ) ) ;
#114 = CARTESIAN_POINT ( 'NONE',  ( -10.00000000000000000, 0.0000000000000000000, 2.000000000000000000 ) ) ;
#115 = DATE_AND_TIME ( #117, #18 ) ;
#116 =( GEOMETRIC_REPRESENTATION_CONTEXT ( 3 ) GLOBAL_UNCERTAINTY_ASSIGNED_CONTEXT ( ( #20 ) ) GLOBAL_UNIT_ASSIGNED_CONTEXT ( ( #17, #110, #30 ) ) REPRESENTATION_CONTEXT ( 'NONE', 'WORKASPACE' ) );
#117 = CALENDAR_DATE ( 2017, 31, 1 ) ;
#118 = FACE_OUTER_BOUND ( 'NONE', #174, .T. ) ;
#119 = DIRECTION ( 'NONE',  ( 0.0000000000000000000, 0.0000000000000000000, 1.000000000000000000 ) ) ;
#120 = ORIENTED_EDGE ( 'NONE', *, *, #46, .F. ) ;
#121 = EDGE_CURVE ( 'NONE', #84, #9, #31, .T. ) ;
#122 = PRODUCT_DEFINITION_FORMATION_WITH_SPECIFIED_SOURCE ( 'ANY', '', #168, .NOT_KNOWN. ) ;
#123 = APPROVAL_ROLE ( '' ) ;
#124 = EDGE_LOOP ( 'NONE', ( #156, #130, #98, #101 ) ) ;
#125 = CARTESIAN_POINT ( 'NONE',  ( 0.0000000000000000000, 0.0000000000000000000, 0.0000000000000000000 ) ) ;
#126 = APPROVAL_DATE_TIME ( #1, #47 ) ;
#127 = DATE_AND_TIME ( #132, #146 ) ;
#128 = EDGE_CURVE ( 'NONE', #9, #13, #133, .T. ) ;
#129 = CIRCLE ( 'NONE', #147, 10.00000000000000000 ) ;
#130 = ORIENTED_EDGE ( 'NONE', *, *, #48, .T. ) ;
#131 = MANIFOLD_SOLID_BREP ( 'Extrude1', #78 ) ;
#132 = CALENDAR_DATE ( 2017, 31, 1 ) ;
#133 = LINE ( 'NONE', #87, #91 ) ;
#134 = CARTESIAN_POINT ( 'NONE',  ( 0.0000000000000000000, 0.0000000000000000000, 2.000000000000000000 ) ) ;
#135 = ADVANCED_FACE ( 'NONE', ( #118 ), #10, .F. ) ;
#136 = COORDINATED_UNIVERSAL_TIME_OFFSET ( 5, 0, .BEHIND. ) ;
#137 = ORGANIZATION ( 'UNSPECIFIED', 'UNSPECIFIED', '' ) ;
#138 = DATE_TIME_ROLE ( 'creation_date' ) ;
#139 = APPROVAL_PERSON_ORGANIZATION ( #170, #47, #123 ) ;
#140 = DIRECTION ( 'NONE',  ( 1.000000000000000000, 0.0000000000000000000, 0.0000000000000000000 ) ) ;
#141 = DIRECTION ( 'NONE',  ( 0.0000000000000000000, 0.0000000000000000000, 1.000000000000000000 ) ) ;
#142 = PERSON_AND_ORGANIZATION ( #8, #137 ) ;
#143 = CIRCLE ( 'NONE', #173, 10.00000000000000000 ) ;
#144 = AXIS2_PLACEMENT_3D ( 'NONE', #40, #159, #11 ) ;
#145 = CARTESIAN_POINT ( 'NONE',  ( 0.0000000000000000000, 0.0000000000000000000, 0.0000000000000000000 ) ) ;
#146 = LOCAL_TIME ( 14, 31, 49.00000000000000000, #37 ) ;
#147 = AXIS2_PLACEMENT_3D ( 'NONE', #125, #141, #140 ) ;
#148 = DESIGN_CONTEXT ( 'detailed design', #77, 'design' ) ;
#149 = SHAPE_DEFINITION_REPRESENTATION ( #74, #82 ) ;
#150 = DIRECTION ( 'NONE',  ( -0.0000000000000000000, -0.0000000000000000000, -1.000000000000000000 ) ) ;
#151 = ORIENTED_EDGE ( 'NONE', *, *, #165, .T. ) ;
#152 = DIRECTION ( 'NONE',  ( 1.000000000000000000, 0.0000000000000000000, 0.0000000000000000000 ) ) ;
#153 = CC_DESIGN_PERSON_AND_ORGANIZATION_ASSIGNMENT ( #169, #14, ( #168 ) ) ;
#154 = PERSON_AND_ORGANIZATION ( #8, #137 ) ;
#155 = VERTEX_POINT ( 'NONE', #49 ) ;
#156 = ORIENTED_EDGE ( 'NONE', *, *, #121, .F. ) ;
#157 = APPROVAL_DATE_TIME ( #127, #60 ) ;
#158 = ADVANCED_FACE ( 'NONE', ( #21 ), #61, .T. ) ;
#159 = DIRECTION ( 'NONE',  ( -0.0000000000000000000, -0.0000000000000000000, -1.000000000000000000 ) ) ;
#160 = DIRECTION ( 'NONE',  ( 1.000000000000000000, 0.0000000000000000000, -0.0000000000000000000 ) ) ;
#161 = DIRECTION ( 'NONE',  ( 1.000000000000000000, 0.0000000000000000000, 0.0000000000000000000 ) ) ;
#162 = APPROVAL_ROLE ( '' ) ;
#163 = DIRECTION ( 'NONE',  ( 0.0000000000000000000, 0.0000000000000000000, 1.000000000000000000 ) ) ;
#164 = CC_DESIGN_PERSON_AND_ORGANIZATION_ASSIGNMENT ( #58, #65, ( #122 ) ) ;
#165 = EDGE_CURVE ( 'NONE', #13, #155, #129, .T. ) ;
#166 = APPROVAL_PERSON_ORGANIZATION ( #26, #60, #162 ) ;
#167 = CYLINDRICAL_SURFACE ( 'NONE', #144, 10.00000000000000000 ) ;
#168 = PRODUCT ( 'Web Model 65923', 'Web Model 65923', '', ( #67 ) ) ;
#169 = PERSON_AND_ORGANIZATION ( #8, #137 ) ;
#170 = PERSON_AND_ORGANIZATION ( #8, #137 ) ;
#171 = CARTESIAN_POINT ( 'NONE',  ( 10.00000000000000000, 1.224646799147353300E-015, 2.000000000000000000 ) ) ;
#172 = ORIENTED_EDGE ( 'NONE', *, *, #71, .F. ) ;
#173 = AXIS2_PLACEMENT_3D ( 'NONE', #23, #50, #161 ) ;
#174 = EDGE_LOOP ( 'NONE', ( #96, #120 ) ) ;
#175 = APPROVAL_ROLE ( '' ) ;
ENDSEC;
END-ISO-10303-21;
