ISO-10303-21;
HEADER;
FILE_DESCRIPTION (( 'STEP AP203' ),
    '1' );
FILE_NAME ('Web Model 19634_19637.step',
    '2022-01-11T21:49:44',
    ( '' ),
    ( '' ),
    'SwSTEP 2.0',
    'SolidWorks 2018',
    '' );
FILE_SCHEMA (( 'CONFIG_CONTROL_DESIGN' ));
ENDSEC;

DATA;
#1 = DATE_AND_TIME ( #167, #62 ) ;
#2 = CARTESIAN_POINT ( 'NONE',  ( -38.10000000000000142, 0.000000000000000000, 1.520000000000000018 ) ) ;
#3 = APPROVAL ( #161, 'UNSPECIFIED' ) ;
#4 = COORDINATED_UNIVERSAL_TIME_OFFSET ( 5, 0, .BEHIND. ) ;
#5 = CARTESIAN_POINT ( 'NONE',  ( 0.000000000000000000, 0.000000000000000000, 1.520000000000000018 ) ) ;
#6 = AXIS2_PLACEMENT_3D ( 'NONE', #99, #56, #32 ) ;
#7 = DIRECTION ( 'NONE',  ( -0.000000000000000000, -0.000000000000000000, -1.000000000000000000 ) ) ;
#8 = DATE_AND_TIME ( #57, #96 ) ;
#9 = CIRCLE ( 'NONE', #165, 38.10000000000000142 ) ;
#10 = FACE_OUTER_BOUND ( 'NONE', #46, .T. ) ;
#11 = FACE_OUTER_BOUND ( 'NONE', #117, .T. ) ;
#12 =( GEOMETRIC_REPRESENTATION_CONTEXT ( 3 ) GLOBAL_UNCERTAINTY_ASSIGNED_CONTEXT ( ( #61 ) ) GLOBAL_UNIT_ASSIGNED_CONTEXT ( ( #169, #71, #67 ) ) REPRESENTATION_CONTEXT ( 'NONE', 'WORKASPACE' ) );
#13 = EDGE_LOOP ( 'NONE', ( #79, #140, #115, #36 ) ) ;
#14 = PERSON_AND_ORGANIZATION ( #44, #28 ) ;
#15 = CALENDAR_DATE ( 2022, 11, 1 ) ;
#16 = CLOSED_SHELL ( 'NONE', ( #159, #156, #82, #93 ) ) ;
#17 = LINE ( 'NONE', #59, #162 ) ;
#18 = DIRECTION ( 'NONE',  ( 0.000000000000000000, 0.000000000000000000, 1.000000000000000000 ) ) ;
#19 = APPLICATION_PROTOCOL_DEFINITION ( 'international standard', 'config_control_design', 1994, #21 ) ;
#20 = AXIS2_PLACEMENT_3D ( 'NONE', #66, #132, #139 ) ;
#21 = APPLICATION_CONTEXT ( 'configuration controlled 3d designs of mechanical parts and assemblies' ) ;
#22 = APPLICATION_PROTOCOL_DEFINITION ( 'international standard', 'config_control_design', 1994, #173 ) ;
#23 = FACE_OUTER_BOUND ( 'NONE', #13, .T. ) ;
#24 = AXIS2_PLACEMENT_3D ( 'NONE', #168, #91, #153 ) ;
#25 = CALENDAR_DATE ( 2022, 11, 1 ) ;
#26 = CC_DESIGN_APPROVAL ( #103, ( #130 ) ) ;
#27 = CC_DESIGN_APPROVAL ( #3, ( #116 ) ) ;
#28 = ORGANIZATION ( 'UNSPECIFIED', 'UNSPECIFIED', '' ) ;
#29 = CARTESIAN_POINT ( 'NONE',  ( 0.000000000000000000, 0.000000000000000000, 1.520000000000000018 ) ) ;
#30 = VERTEX_POINT ( 'NONE', #75 ) ;
#31 = APPROVAL_STATUS ( 'not_yet_approved' ) ;
#32 = DIRECTION ( 'NONE',  ( -1.000000000000000000, 0.000000000000000000, 0.000000000000000000 ) ) ;
#33 = CYLINDRICAL_SURFACE ( 'NONE', #6, 38.10000000000000142 ) ;
#34 = CC_DESIGN_DATE_AND_TIME_ASSIGNMENT ( #151, #111, ( #116 ) ) ;
#35 = SHAPE_DEFINITION_REPRESENTATION ( #53, #49 ) ;
#36 = ORIENTED_EDGE ( 'NONE', *, *, #121, .T. ) ;
#37 = LINE ( 'NONE', #149, #69 ) ;
#38 = PERSON_AND_ORGANIZATION ( #44, #28 ) ;
#39 = APPROVAL_PERSON_ORGANIZATION ( #134, #103, #122 ) ;
#40 = VERTEX_POINT ( 'NONE', #2 ) ;
#41 = PRODUCT_DEFINITION_FORMATION_WITH_SPECIFIED_SOURCE ( 'ANY', '', #144, .NOT_KNOWN. ) ;
#42 = ORIENTED_EDGE ( 'NONE', *, *, #155, .F. ) ;
#43 = CALENDAR_DATE ( 2022, 11, 1 ) ;
#44 = PERSON ( 'UNSPECIFIED', 'UNSPECIFIED', 'UNSPECIFIED', ('UNSPECIFIED'), ('UNSPECIFIED'), ('UNSPECIFIED') ) ;
#45 = PERSON_AND_ORGANIZATION ( #44, #28 ) ;
#46 = EDGE_LOOP ( 'NONE', ( #145, #106 ) ) ;
#47 = CIRCLE ( 'NONE', #60, 38.10000000000000142 ) ;
#48 = APPROVAL_PERSON_ORGANIZATION ( #38, #51, #58 ) ;
#49 = ADVANCED_BREP_SHAPE_REPRESENTATION ( 'Web Model 19634_19637', ( #81, #163 ), #12 ) ;
#50 = CARTESIAN_POINT ( 'NONE',  ( 38.10000000000000142, 4.665904304751416087E-15, 1.520000000000000018 ) ) ;
#51 = APPROVAL ( #85, 'UNSPECIFIED' ) ;
#52 = PLANE ( 'NONE',  #89 ) ;
#53 = PRODUCT_DEFINITION_SHAPE ( 'NONE', 'NONE',  #116 ) ;
#54 = CARTESIAN_POINT ( 'NONE',  ( -38.10000000000000142, 0.000000000000000000, 0.000000000000000000 ) ) ;
#55 = MECHANICAL_CONTEXT ( 'NONE', #173, 'mechanical' ) ;
#56 = DIRECTION ( 'NONE',  ( -0.000000000000000000, -0.000000000000000000, -1.000000000000000000 ) ) ;
#57 = CALENDAR_DATE ( 2022, 11, 1 ) ;
#58 = APPROVAL_ROLE ( '' ) ;
#59 = CARTESIAN_POINT ( 'NONE',  ( 38.10000000000000142, 4.665904304751416087E-15, 1.520000000000000018 ) ) ;
#60 = AXIS2_PLACEMENT_3D ( 'NONE', #125, #126, #124 ) ;
#61 = UNCERTAINTY_MEASURE_WITH_UNIT (LENGTH_MEASURE( 1.000000000000000082E-05 ), #169, 'distance_accuracy_value', 'NONE');
#62 = LOCAL_TIME ( 16, 49, 44.00000000000000000, #4 ) ;
#63 = CYLINDRICAL_SURFACE ( 'NONE', #137, 38.10000000000000142 ) ;
#64 = ORIENTED_EDGE ( 'NONE', *, *, #131, .T. ) ;
#65 = APPROVAL_DATE_TIME ( #8, #103 ) ;
#66 = CARTESIAN_POINT ( 'NONE',  ( 0.000000000000000000, 0.000000000000000000, 1.520000000000000018 ) ) ;
#67 =( NAMED_UNIT ( * ) SI_UNIT ( $, .STERADIAN. ) SOLID_ANGLE_UNIT ( ) );
#68 = DATE_AND_TIME ( #15, #76 ) ;
#69 = VECTOR ( 'NONE', #90, 1000.000000000000000 ) ;
#70 = PERSON_AND_ORGANIZATION_ROLE ( 'creator' ) ;
#71 =( NAMED_UNIT ( * ) PLANE_ANGLE_UNIT ( ) SI_UNIT ( $, .RADIAN. ) );
#72 = EDGE_CURVE ( 'NONE', #78, #40, #9, .T. ) ;
#73 = ORIENTED_EDGE ( 'NONE', *, *, #121, .F. ) ;
#74 = FACE_OUTER_BOUND ( 'NONE', #86, .T. ) ;
#75 = CARTESIAN_POINT ( 'NONE',  ( 38.10000000000000142, 4.665904304751416087E-15, 0.000000000000000000 ) ) ;
#76 = LOCAL_TIME ( 16, 49, 44.00000000000000000, #123 ) ;
#77 = CIRCLE ( 'NONE', #20, 38.10000000000000142 ) ;
#78 = VERTEX_POINT ( 'NONE', #50 ) ;
#79 = ORIENTED_EDGE ( 'NONE', *, *, #131, .F. ) ;
#80 = CIRCLE ( 'NONE', #119, 38.10000000000000142 ) ;
#81 = MANIFOLD_SOLID_BREP ( 'Boss-Extrude1', #16 ) ;
#82 = ADVANCED_FACE ( 'NONE', ( #10 ), #52, .T. ) ;
#83 = CARTESIAN_POINT ( 'NONE',  ( 0.000000000000000000, 0.000000000000000000, 0.000000000000000000 ) ) ;
#84 = PERSON_AND_ORGANIZATION_ROLE ( 'classification_officer' ) ;
#85 = APPROVAL_STATUS ( 'not_yet_approved' ) ;
#86 = EDGE_LOOP ( 'NONE', ( #73, #42 ) ) ;
#87 = PERSON_AND_ORGANIZATION ( #44, #28 ) ;
#88 = PERSON_AND_ORGANIZATION ( #44, #28 ) ;
#89 = AXIS2_PLACEMENT_3D ( 'NONE', #29, #148, #104 ) ;
#90 = DIRECTION ( 'NONE',  ( -0.000000000000000000, -0.000000000000000000, -1.000000000000000000 ) ) ;
#91 = DIRECTION ( 'NONE',  ( 0.000000000000000000, 0.000000000000000000, 1.000000000000000000 ) ) ;
#92 = APPROVAL_PERSON_ORGANIZATION ( #14, #3, #110 ) ;
#93 = ADVANCED_FACE ( 'NONE', ( #74 ), #166, .F. ) ;
#94 = DATE_TIME_ROLE ( 'classification_date' ) ;
#95 = DIRECTION ( 'NONE',  ( -1.000000000000000000, 0.000000000000000000, 0.000000000000000000 ) ) ;
#96 = LOCAL_TIME ( 16, 49, 44.00000000000000000, #100 ) ;
#97 = DIRECTION ( 'NONE',  ( 1.000000000000000000, 0.000000000000000000, 0.000000000000000000 ) ) ;
#98 = PERSON_AND_ORGANIZATION ( #44, #28 ) ;
#99 = CARTESIAN_POINT ( 'NONE',  ( 0.000000000000000000, 0.000000000000000000, 1.520000000000000018 ) ) ;
#100 = COORDINATED_UNIVERSAL_TIME_OFFSET ( 5, 0, .BEHIND. ) ;
#101 = LOCAL_TIME ( 16, 49, 44.00000000000000000, #135 ) ;
#102 = ORIENTED_EDGE ( 'NONE', *, *, #72, .F. ) ;
#103 = APPROVAL ( #31, 'UNSPECIFIED' ) ;
#104 = DIRECTION ( 'NONE',  ( 1.000000000000000000, 0.000000000000000000, -0.000000000000000000 ) ) ;
#105 = EDGE_CURVE ( 'NONE', #40, #78, #77, .T. ) ;
#106 = ORIENTED_EDGE ( 'NONE', *, *, #72, .T. ) ;
#107 = COORDINATED_UNIVERSAL_TIME_OFFSET ( 5, 0, .BEHIND. ) ;
#108 = DIRECTION ( 'NONE',  ( 1.000000000000000000, 0.000000000000000000, 0.000000000000000000 ) ) ;
#109 = SECURITY_CLASSIFICATION_LEVEL ( 'unclassified' ) ;
#110 = APPROVAL_ROLE ( '' ) ;
#111 = DATE_TIME_ROLE ( 'creation_date' ) ;
#112 = CARTESIAN_POINT ( 'NONE',  ( 0.000000000000000000, 0.000000000000000000, 0.000000000000000000 ) ) ;
#113 = DATE_AND_TIME ( #43, #127 ) ;
#114 = EDGE_CURVE ( 'NONE', #40, #175, #37, .T. ) ;
#115 = ORIENTED_EDGE ( 'NONE', *, *, #114, .T. ) ;
#116 = PRODUCT_DEFINITION ( 'UNKNOWN', '', #41, #128 ) ;
#117 = EDGE_LOOP ( 'NONE', ( #102, #64, #157, #147 ) ) ;
#118 = CC_DESIGN_DATE_AND_TIME_ASSIGNMENT ( #1, #94, ( #130 ) ) ;
#119 = AXIS2_PLACEMENT_3D ( 'NONE', #112, #138, #142 ) ;
#120 = CC_DESIGN_PERSON_AND_ORGANIZATION_ASSIGNMENT ( #45, #70, ( #41 ) ) ;
#121 = EDGE_CURVE ( 'NONE', #175, #30, #47, .T. ) ;
#122 = APPROVAL_ROLE ( '' ) ;
#123 = COORDINATED_UNIVERSAL_TIME_OFFSET ( 5, 0, .BEHIND. ) ;
#124 = DIRECTION ( 'NONE',  ( 1.000000000000000000, 0.000000000000000000, 0.000000000000000000 ) ) ;
#125 = CARTESIAN_POINT ( 'NONE',  ( 0.000000000000000000, 0.000000000000000000, 0.000000000000000000 ) ) ;
#126 = DIRECTION ( 'NONE',  ( 0.000000000000000000, 0.000000000000000000, 1.000000000000000000 ) ) ;
#127 = LOCAL_TIME ( 16, 49, 44.00000000000000000, #107 ) ;
#128 = DESIGN_CONTEXT ( 'detailed design', #21, 'design' ) ;
#129 = PERSON_AND_ORGANIZATION ( #44, #28 ) ;
#130 = SECURITY_CLASSIFICATION ( '', '', #109 ) ;
#131 = EDGE_CURVE ( 'NONE', #78, #30, #17, .T. ) ;
#132 = DIRECTION ( 'NONE',  ( 0.000000000000000000, 0.000000000000000000, 1.000000000000000000 ) ) ;
#133 = CC_DESIGN_PERSON_AND_ORGANIZATION_ASSIGNMENT ( #87, #172, ( #41 ) ) ;
#134 = PERSON_AND_ORGANIZATION ( #44, #28 ) ;
#135 = COORDINATED_UNIVERSAL_TIME_OFFSET ( 5, 0, .BEHIND. ) ;
#136 = CC_DESIGN_APPROVAL ( #51, ( #41 ) ) ;
#137 = AXIS2_PLACEMENT_3D ( 'NONE', #5, #158, #95 ) ;
#138 = DIRECTION ( 'NONE',  ( 0.000000000000000000, 0.000000000000000000, 1.000000000000000000 ) ) ;
#139 = DIRECTION ( 'NONE',  ( 1.000000000000000000, 0.000000000000000000, 0.000000000000000000 ) ) ;
#140 = ORIENTED_EDGE ( 'NONE', *, *, #105, .F. ) ;
#141 = PERSON_AND_ORGANIZATION_ROLE ( 'creator' ) ;
#142 = DIRECTION ( 'NONE',  ( 1.000000000000000000, 0.000000000000000000, 0.000000000000000000 ) ) ;
#143 = APPROVAL_DATE_TIME ( #68, #3 ) ;
#144 = PRODUCT ( 'Web Model 19634_19637', 'Web Model 19634_19637', '', ( #55 ) ) ;
#145 = ORIENTED_EDGE ( 'NONE', *, *, #105, .T. ) ;
#146 = CC_DESIGN_PERSON_AND_ORGANIZATION_ASSIGNMENT ( #88, #141, ( #116 ) ) ;
#147 = ORIENTED_EDGE ( 'NONE', *, *, #114, .F. ) ;
#148 = DIRECTION ( 'NONE',  ( 0.000000000000000000, 0.000000000000000000, 1.000000000000000000 ) ) ;
#149 = CARTESIAN_POINT ( 'NONE',  ( -38.10000000000000142, 0.000000000000000000, 1.520000000000000018 ) ) ;
#150 = CARTESIAN_POINT ( 'NONE',  ( 0.000000000000000000, 0.000000000000000000, 1.520000000000000018 ) ) ;
#151 = DATE_AND_TIME ( #25, #101 ) ;
#152 = APPROVAL_DATE_TIME ( #113, #51 ) ;
#153 = DIRECTION ( 'NONE',  ( 1.000000000000000000, 0.000000000000000000, -0.000000000000000000 ) ) ;
#154 = CC_DESIGN_PERSON_AND_ORGANIZATION_ASSIGNMENT ( #98, #84, ( #130 ) ) ;
#155 = EDGE_CURVE ( 'NONE', #30, #175, #80, .T. ) ;
#156 = ADVANCED_FACE ( 'NONE', ( #23 ), #63, .T. ) ;
#157 = ORIENTED_EDGE ( 'NONE', *, *, #155, .T. ) ;
#158 = DIRECTION ( 'NONE',  ( -0.000000000000000000, -0.000000000000000000, -1.000000000000000000 ) ) ;
#159 = ADVANCED_FACE ( 'NONE', ( #11 ), #33, .T. ) ;
#160 = DIRECTION ( 'NONE',  ( 0.000000000000000000, 0.000000000000000000, 1.000000000000000000 ) ) ;
#161 = APPROVAL_STATUS ( 'not_yet_approved' ) ;
#162 = VECTOR ( 'NONE', #7, 1000.000000000000000 ) ;
#163 = AXIS2_PLACEMENT_3D ( 'NONE', #83, #160, #97 ) ;
#164 = CC_DESIGN_SECURITY_CLASSIFICATION ( #130, ( #41 ) ) ;
#165 = AXIS2_PLACEMENT_3D ( 'NONE', #150, #18, #108 ) ;
#166 = PLANE ( 'NONE',  #24 ) ;
#167 = CALENDAR_DATE ( 2022, 11, 1 ) ;
#168 = CARTESIAN_POINT ( 'NONE',  ( 0.000000000000000000, 0.000000000000000000, 0.000000000000000000 ) ) ;
#169 =( LENGTH_UNIT ( ) NAMED_UNIT ( * ) SI_UNIT ( .MILLI., .METRE. ) );
#170 = CC_DESIGN_PERSON_AND_ORGANIZATION_ASSIGNMENT ( #129, #171, ( #144 ) ) ;
#171 = PERSON_AND_ORGANIZATION_ROLE ( 'design_owner' ) ;
#172 = PERSON_AND_ORGANIZATION_ROLE ( 'design_supplier' ) ;
#173 = APPLICATION_CONTEXT ( 'configuration controlled 3d designs of mechanical parts and assemblies' ) ;
#174 = PRODUCT_RELATED_PRODUCT_CATEGORY ( 'detail', '', ( #144 ) ) ;
#175 = VERTEX_POINT ( 'NONE', #54 ) ;
ENDSEC;
END-ISO-10303-21;
