ISO-10303-21;
HEADER;
FILE_DESCRIPTION (( 'STEP AP203' ),
    '1' );
FILE_NAME ('TTN047617-E0W.STEP',
    '2019-05-30T15:05:32',
    ( '' ),
    ( '' ),
    'SwSTEP 2.0',
    'SolidWorks 2018',
    '' );
FILE_SCHEMA (( 'CONFIG_CONTROL_DESIGN' ));
ENDSEC;

DATA;
#1 = CARTESIAN_POINT ( 'NONE',  ( 0.0000000000000000000, 0.0000000000000000000, 0.7657337882129655604 ) ) ;
#2 = CARTESIAN_POINT ( 'NONE',  ( 0.0000000000000000000, 3.845263951002266188E-16, -1.040000000000000036 ) ) ;
#3 = CIRCLE ( 'NONE', #224, 1051.996000000000322 ) ;
#4 = DIRECTION ( 'NONE',  ( 0.0000000000000000000, 0.0000000000000000000, 1.000000000000000000 ) ) ;
#5 = DIRECTION ( 'NONE',  ( -0.7071067811865484609, 8.659560562354943952E-17, 0.7071067811865465735 ) ) ;
#6 = DIRECTION ( 'NONE',  ( 0.0000000000000000000, 1.000000000000000000, 2.110698186352716487E-16 ) ) ;
#7 = ORIENTED_EDGE ( 'NONE', *, *, #331, .F. ) ;
#8 = VECTOR ( 'NONE', #277, 1000.000000000000000 ) ;
#9 = CARTESIAN_POINT ( 'NONE',  ( 1.530808498933811882E-15, -12.49999999999709388, 0.9657337882129641837 ) ) ;
#10 = CC_DESIGN_PERSON_AND_ORGANIZATION_ASSIGNMENT ( #19, #176, ( #235 ) ) ;
#11 = CARTESIAN_POINT ( 'NONE',  ( 0.0000000000000000000, 3.845263951002271612E-16, -1.040000000000002034 ) ) ;
#12 = CONICAL_SURFACE ( 'NONE', #321, 12.50000000000000178, 0.7853981633974516097 ) ;
#13 = DIRECTION ( 'NONE',  ( -1.000000000000000000, 0.0000000000000000000, 0.0000000000000000000 ) ) ;
#14 = CARTESIAN_POINT ( 'NONE',  ( 0.0000000000000000000, 0.0000000000000000000, -0.8400000000000001910 ) ) ;
#15 = AXIS2_PLACEMENT_3D ( 'NONE', #264, #147, #206 ) ;
#16 = VERTEX_POINT ( 'NONE', #330 ) ;
#17 = APPLICATION_CONTEXT ( 'configuration controlled 3d designs of mechanical parts and assemblies' ) ;
#18 = CIRCLE ( 'NONE', #357, 12.50000000000000178 ) ;
#19 = PERSON_AND_ORGANIZATION ( #219, #220 ) ;
#20 = APPLICATION_PROTOCOL_DEFINITION ( 'international standard', 'config_control_design', 1994, #216 ) ;
#21 = ADVANCED_FACE ( 'NONE', ( #304 ), #12, .T. ) ;
#22 = FACE_OUTER_BOUND ( 'NONE', #58, .T. ) ;
#23 = AXIS2_PLACEMENT_3D ( 'NONE', #14, #102, #151 ) ;
#24 = APPROVAL_PERSON_ORGANIZATION ( #178, #191, #103 ) ;
#25 = EDGE_CURVE ( 'NONE', #132, #187, #297, .T. ) ;
#26 = ORIENTED_EDGE ( 'NONE', *, *, #120, .T. ) ;
#27 = DIRECTION ( 'NONE',  ( -0.0000000000000000000, -0.0000000000000000000, -1.000000000000000000 ) ) ;
#28 = COORDINATED_UNIVERSAL_TIME_OFFSET ( 5, 0, .BEHIND. ) ;
#29 = AXIS2_PLACEMENT_3D ( 'NONE', #140, #115, #62 ) ;
#30 = FACE_OUTER_BOUND ( 'NONE', #109, .T. ) ;
#31 = DIRECTION ( 'NONE',  ( 1.000000000000000000, 0.0000000000000000000, 0.0000000000000000000 ) ) ;
#32 = CARTESIAN_POINT ( 'NONE',  ( 12.50000000000000178, 0.0000000000000000000, -1.040000000000000036 ) ) ;
#33 = SECURITY_CLASSIFICATION ( '', '', #46 ) ;
#34 = DIRECTION ( 'NONE',  ( -1.000000000000000000, 0.0000000000000000000, 0.0000000000000000000 ) ) ;
#35 = DIRECTION ( 'NONE',  ( -1.000000000000000000, 0.0000000000000000000, 0.0000000000000000000 ) ) ;
#36 = VERTEX_POINT ( 'NONE', #307 ) ;
#37 = ORIENTED_EDGE ( 'NONE', *, *, #239, .F. ) ;
#38 = DIRECTION ( 'NONE',  ( -1.000000000000000000, 0.0000000000000000000, 0.0000000000000000000 ) ) ;
#39 = CARTESIAN_POINT ( 'NONE',  ( 12.70000000000000284, 0.0000000000000000000, -0.8400000000000001910 ) ) ;
#40 = CC_DESIGN_PERSON_AND_ORGANIZATION_ASSIGNMENT ( #53, #180, ( #172 ) ) ;
#41 = CARTESIAN_POINT ( 'NONE',  ( 0.0000000000000000000, 12.70000000000000284, -1.039999999999996261 ) ) ;
#42 = EDGE_CURVE ( 'NONE', #44, #132, #232, .T. ) ;
#43 =( NAMED_UNIT ( * ) SI_UNIT ( $, .STERADIAN. ) SOLID_ANGLE_UNIT ( ) );
#44 = VERTEX_POINT ( 'NONE', #110 ) ;
#45 = COORDINATED_UNIVERSAL_TIME_OFFSET ( 5, 0, .BEHIND. ) ;
#46 = SECURITY_CLASSIFICATION_LEVEL ( 'unclassified' ) ;
#47 = ORIENTED_EDGE ( 'NONE', *, *, #81, .T. ) ;
#48 = APPROVAL_ROLE ( '' ) ;
#49 = CONICAL_SURFACE ( 'NONE', #85, 12.50000000000000178, 0.7853981633974516097 ) ;
#50 = DATE_AND_TIME ( #119, #55 ) ;
#51 = ADVANCED_FACE ( 'NONE', ( #86 ), #223, .T. ) ;
#52 = ORIENTED_EDGE ( 'NONE', *, *, #239, .T. ) ;
#53 = PERSON_AND_ORGANIZATION ( #219, #220 ) ;
#54 = CC_DESIGN_PERSON_AND_ORGANIZATION_ASSIGNMENT ( #229, #215, ( #33 ) ) ;
#55 = LOCAL_TIME ( 11, 5, 32.00000000000000000, #28 ) ;
#56 = ADVANCED_FACE ( 'NONE', ( #361 ), #269, .T. ) ;
#57 = ORIENTED_EDGE ( 'NONE', *, *, #83, .F. ) ;
#58 = EDGE_LOOP ( 'NONE', ( #79, #335 ) ) ;
#59 = CIRCLE ( 'NONE', #15, 12.50000000000000178 ) ;
#60 = CARTESIAN_POINT ( 'NONE',  ( 0.0000000000000000000, 0.0000000000000000000, -0.8400000000000001910 ) ) ;
#61 = CARTESIAN_POINT ( 'NONE',  ( 0.0000000000000000000, 0.0000000000000000000, 0.9657337882129648499 ) ) ;
#62 = DIRECTION ( 'NONE',  ( -1.000000000000000000, 0.0000000000000000000, 0.0000000000000000000 ) ) ;
#63 = ORIENTED_EDGE ( 'NONE', *, *, #266, .T. ) ;
#64 = PRODUCT_DEFINITION_SHAPE ( 'NONE', 'NONE',  #172 ) ;
#65 = CARTESIAN_POINT ( 'NONE',  ( 0.0000000000000000000, 0.0000000000000000000, 0.9657337882129648499 ) ) ;
#66 = PLANE ( 'NONE',  #296 ) ;
#67 = CIRCLE ( 'NONE', #262, 12.70000000000000284 ) ;
#68 = DIRECTION ( 'NONE',  ( -0.0000000000000000000, -0.0000000000000000000, -1.000000000000000000 ) ) ;
#69 = AXIS2_PLACEMENT_3D ( 'NONE', #252, #343, #112 ) ;
#70 = DIRECTION ( 'NONE',  ( 0.0000000000000000000, 0.0000000000000000000, 1.000000000000000000 ) ) ;
#71 = CARTESIAN_POINT ( 'NONE',  ( 0.0000000000000000000, 0.0000000000000000000, -1.040000000000000036 ) ) ;
#72 = DIRECTION ( 'NONE',  ( -0.0000000000000000000, -0.0000000000000000000, -1.000000000000000000 ) ) ;
#73 = PERSON_AND_ORGANIZATION ( #219, #220 ) ;
#74 = DIRECTION ( 'NONE',  ( 0.0000000000000000000, 1.000000000000000000, 3.061515884555943146E-16 ) ) ;
#75 = AXIS2_PLACEMENT_3D ( 'NONE', #261, #349, #117 ) ;
#76 = ORIENTED_EDGE ( 'NONE', *, *, #106, .F. ) ;
#77 = ORIENTED_EDGE ( 'NONE', *, *, #331, .T. ) ;
#78 = EDGE_CURVE ( 'NONE', #36, #170, #142, .T. ) ;
#79 = ORIENTED_EDGE ( 'NONE', *, *, #101, .T. ) ;
#80 = SPHERICAL_SURFACE ( 'NONE', #237, 1051.996000000000322 ) ;
#81 = EDGE_CURVE ( 'NONE', #130, #36, #311, .T. ) ;
#82 = AXIS2_PLACEMENT_3D ( 'NONE', #227, #248, #35 ) ;
#83 = EDGE_CURVE ( 'NONE', #164, #111, #246, .T. ) ;
#84 = CARTESIAN_POINT ( 'NONE',  ( 1.555301434917138827E-15, -12.70000000000000284, -1.040000000000004032 ) ) ;
#85 = AXIS2_PLACEMENT_3D ( 'NONE', #204, #72, #38 ) ;
#86 = FACE_OUTER_BOUND ( 'NONE', #113, .T. ) ;
#87 = CIRCLE ( 'NONE', #305, 1051.996000000000322 ) ;
#88 = EDGE_CURVE ( 'NONE', #341, #130, #18, .T. ) ;
#89 = APPROVAL_DATE_TIME ( #197, #336 ) ;
#90 = ORIENTED_EDGE ( 'NONE', *, *, #266, .F. ) ;
#91 = CC_DESIGN_DATE_AND_TIME_ASSIGNMENT ( #50, #234, ( #33 ) ) ;
#92 = CARTESIAN_POINT ( 'NONE',  ( 0.0000000000000000000, 1.285758296706851804E-13, -1050.956000000000358 ) ) ;
#93 = CALENDAR_DATE ( 2019, 30, 5 ) ;
#94 = CARTESIAN_POINT ( 'NONE',  ( -12.70000000000000284, 0.0000000000000000000, 0.7657337882129655604 ) ) ;
#95 = DIRECTION ( 'NONE',  ( -1.000000000000000000, 0.0000000000000000000, 0.0000000000000000000 ) ) ;
#96 = ORIENTED_EDGE ( 'NONE', *, *, #88, .F. ) ;
#97 = DIRECTION ( 'NONE',  ( -1.000000000000000000, 0.0000000000000000000, 0.0000000000000000000 ) ) ;
#98 = LINE ( 'NONE', #200, #316 ) ;
#99 = DIRECTION ( 'NONE',  ( -0.0000000000000000000, -0.0000000000000000000, -1.000000000000000000 ) ) ;
#100 = CARTESIAN_POINT ( 'NONE',  ( 0.0000000000000000000, 0.0000000000000000000, -0.8400000000000001910 ) ) ;
#101 = EDGE_CURVE ( 'NONE', #165, #238, #171, .T. ) ;
#102 = DIRECTION ( 'NONE',  ( -0.0000000000000000000, -0.0000000000000000000, -1.000000000000000000 ) ) ;
#103 = APPROVAL_ROLE ( '' ) ;
#104 = DATE_TIME_ROLE ( 'creation_date' ) ;
#105 = CC_DESIGN_PERSON_AND_ORGANIZATION_ASSIGNMENT ( #166, #179, ( #235 ) ) ;
#106 = EDGE_CURVE ( 'NONE', #132, #128, #301, .T. ) ;
#107 = ORIENTED_EDGE ( 'NONE', *, *, #25, .T. ) ;
#108 = AXIS2_PLACEMENT_3D ( 'NONE', #312, #339, #228 ) ;
#109 = EDGE_LOOP ( 'NONE', ( #221, #332, #282, #256, #245 ) ) ;
#110 = CARTESIAN_POINT ( 'NONE',  ( 12.70000000000000284, 1.555301434917138827E-15, 0.7657337882129655604 ) ) ;
#111 = VERTEX_POINT ( 'NONE', #169 ) ;
#112 = DIRECTION ( 'NONE',  ( -1.000000000000000000, 0.0000000000000000000, 0.0000000000000000000 ) ) ;
#113 = EDGE_LOOP ( 'NONE', ( #292, #313, #107, #90, #57, #327 ) ) ;
#114 = DIRECTION ( 'NONE',  ( -0.0000000000000000000, -0.0000000000000000000, -1.000000000000000000 ) ) ;
#115 = DIRECTION ( 'NONE',  ( -0.0000000000000000000, -0.0000000000000000000, -1.000000000000000000 ) ) ;
#116 = LINE ( 'NONE', #226, #207 ) ;
#117 = DIRECTION ( 'NONE',  ( -1.000000000000000000, 0.0000000000000000000, 0.0000000000000000000 ) ) ;
#118 = CC_DESIGN_SECURITY_CLASSIFICATION ( #33, ( #235 ) ) ;
#119 = CALENDAR_DATE ( 2019, 30, 5 ) ;
#120 = EDGE_CURVE ( 'NONE', #193, #130, #3, .T. ) ;
#121 = DIRECTION ( 'NONE',  ( 1.000000000000000000, 0.0000000000000000000, 0.0000000000000000000 ) ) ;
#122 = CARTESIAN_POINT ( 'NONE',  ( -12.50000000000000178, 0.0000000000000000000, 0.9657337882129648499 ) ) ;
#123 = ORIENTED_EDGE ( 'NONE', *, *, #259, .F. ) ;
#124 = CC_DESIGN_APPROVAL ( #191, ( #33 ) ) ;
#125 = EDGE_LOOP ( 'NONE', ( #155, #212, #268, #63, #77 ) ) ;
#126 = FACE_OUTER_BOUND ( 'NONE', #342, .T. ) ;
#127 = MECHANICAL_CONTEXT ( 'NONE', #216, 'mechanical' ) ;
#128 = VERTEX_POINT ( 'NONE', #94 ) ;
#129 = LOCAL_TIME ( 11, 5, 32.00000000000000000, #182 ) ;
#130 = VERTEX_POINT ( 'NONE', #139 ) ;
#131 = ORIENTED_EDGE ( 'NONE', *, *, #81, .F. ) ;
#132 = VERTEX_POINT ( 'NONE', #194 ) ;
#133 = FACE_OUTER_BOUND ( 'NONE', #315, .T. ) ;
#134 = COORDINATED_UNIVERSAL_TIME_OFFSET ( 5, 0, .BEHIND. ) ;
#135 = LINE ( 'NONE', #41, #186 ) ;
#136 = DIRECTION ( 'NONE',  ( 0.0000000000000000000, 1.000000000000000000, 3.073328992872295381E-16 ) ) ;
#137 = CIRCLE ( 'NONE', #75, 12.70000000000000284 ) ;
#138 = CARTESIAN_POINT ( 'NONE',  ( 0.0000000000000000000, 12.70000000000000284, -0.8400000000000001910 ) ) ;
#139 = CARTESIAN_POINT ( 'NONE',  ( 0.0000000000000000000, 12.49999999999722178, 0.9657337882129641837 ) ) ;
#140 = CARTESIAN_POINT ( 'NONE',  ( 0.0000000000000000000, 0.0000000000000000000, -1.040000000000000036 ) ) ;
#141 = DIRECTION ( 'NONE',  ( 1.000000000000000000, 0.0000000000000000000, -0.0000000000000000000 ) ) ;
#142 = CIRCLE ( 'NONE', #203, 12.50000000000000178 ) ;
#143 = EDGE_CURVE ( 'NONE', #238, #249, #116, .T. ) ;
#144 = APPROVAL_PERSON_ORGANIZATION ( #284, #199, #354 ) ;
#145 = CARTESIAN_POINT ( 'NONE',  ( 0.0000000000000000000, 0.0000000000000000000, 0.9657337882129648499 ) ) ;
#146 = DIRECTION ( 'NONE',  ( -0.0000000000000000000, 3.061515884555943146E-16, -1.000000000000000000 ) ) ;
#147 = DIRECTION ( 'NONE',  ( -0.0000000000000000000, -0.0000000000000000000, -1.000000000000000000 ) ) ;
#148 = COORDINATED_UNIVERSAL_TIME_OFFSET ( 5, 0, .BEHIND. ) ;
#149 = DIRECTION ( 'NONE',  ( 0.0000000000000000000, 1.000000000000000000, 3.073328992872295381E-16 ) ) ;
#150 = ORIENTED_EDGE ( 'NONE', *, *, #78, .F. ) ;
#151 = DIRECTION ( 'NONE',  ( -1.000000000000000000, 0.0000000000000000000, 0.0000000000000000000 ) ) ;
#152 = VECTOR ( 'NONE', #318, 1000.000000000000000 ) ;
#153 = PRODUCT ( 'TTN047617-E0W', 'TTN047617-E0W', '', ( #127 ) ) ;
#154 = CC_DESIGN_PERSON_AND_ORGANIZATION_ASSIGNMENT ( #290, #324, ( #153 ) ) ;
#155 = ORIENTED_EDGE ( 'NONE', *, *, #143, .F. ) ;
#156 = APPLICATION_PROTOCOL_DEFINITION ( 'international standard', 'config_control_design', 1994, #17 ) ;
#157 = ADVANCED_FACE ( 'NONE', ( #126 ), #80, .T. ) ;
#158 = ORIENTED_EDGE ( 'NONE', *, *, #88, .T. ) ;
#159 = EDGE_CURVE ( 'NONE', #193, #170, #87, .T. ) ;
#160 = ORIENTED_EDGE ( 'NONE', *, *, #348, .T. ) ;
#161 = VECTOR ( 'NONE', #345, 1000.000000000000114 ) ;
#162 = DIRECTION ( 'NONE',  ( -1.000000000000000000, 0.0000000000000000000, 0.0000000000000000000 ) ) ;
#163 = AXIS2_PLACEMENT_3D ( 'NONE', #231, #293, #149 ) ;
#164 = VERTEX_POINT ( 'NONE', #138 ) ;
#165 = VERTEX_POINT ( 'NONE', #32 ) ;
#166 = PERSON_AND_ORGANIZATION ( #219, #220 ) ;
#167 = DIRECTION ( 'NONE',  ( 1.000000000000000000, 0.0000000000000000000, -0.0000000000000000000 ) ) ;
#168 = CARTESIAN_POINT ( 'NONE',  ( -12.70000000000000284, 1.555301434917138827E-15, -0.8400000000000001910 ) ) ;
#169 = CARTESIAN_POINT ( 'NONE',  ( 12.70000000000000284, 0.0000000000000000000, -0.8400000000000001910 ) ) ;
#170 = VERTEX_POINT ( 'NONE', #9 ) ;
#171 = CIRCLE ( 'NONE', #29, 12.50000000000000178 ) ;
#172 = PRODUCT_DEFINITION ( 'UNKNOWN', '', #235, #201 ) ;
#173 = CALENDAR_DATE ( 2019, 30, 5 ) ;
#174 = DIRECTION ( 'NONE',  ( -0.0000000000000000000, -0.0000000000000000000, -1.000000000000000000 ) ) ;
#175 = ORIENTED_EDGE ( 'NONE', *, *, #120, .F. ) ;
#176 = PERSON_AND_ORGANIZATION_ROLE ( 'design_supplier' ) ;
#177 = CC_DESIGN_APPROVAL ( #336, ( #172 ) ) ;
#178 = PERSON_AND_ORGANIZATION ( #219, #220 ) ;
#179 = PERSON_AND_ORGANIZATION_ROLE ( 'creator' ) ;
#180 = PERSON_AND_ORGANIZATION_ROLE ( 'creator' ) ;
#181 = EDGE_CURVE ( 'NONE', #249, #164, #360, .T. ) ;
#182 = COORDINATED_UNIVERSAL_TIME_OFFSET ( 5, 0, .BEHIND. ) ;
#183 = ORIENTED_EDGE ( 'NONE', *, *, #106, .T. ) ;
#184 = CC_DESIGN_DATE_AND_TIME_ASSIGNMENT ( #344, #104, ( #172 ) ) ;
#185 = ORIENTED_EDGE ( 'NONE', *, *, #326, .F. ) ;
#186 = VECTOR ( 'NONE', #260, 1000.000000000000000 ) ;
#187 = VERTEX_POINT ( 'NONE', #308 ) ;
#188 = APPROVAL_DATE_TIME ( #243, #199 ) ;
#189 = CYLINDRICAL_SURFACE ( 'NONE', #163, 12.70000000000000284 ) ;
#190 = DIRECTION ( 'NONE',  ( -0.0000000000000000000, -0.0000000000000000000, -1.000000000000000000 ) ) ;
#191 = APPROVAL ( #267, 'UNSPECIFIED' ) ;
#192 = DIRECTION ( 'NONE',  ( 0.0000000000000000000, 0.0000000000000000000, 1.000000000000000000 ) ) ;
#193 = VERTEX_POINT ( 'NONE', #196 ) ;
#194 = CARTESIAN_POINT ( 'NONE',  ( 1.555301434917138827E-15, -12.70000000000000284, 0.7657337882129655604 ) ) ;
#195 = CLOSED_SHELL ( 'NONE', ( #222, #298, #358, #51, #302, #56, #240, #21, #157 ) ) ;
#196 = CARTESIAN_POINT ( 'NONE',  ( 0.0000000000000000000, -1.290782400724553521E-13, 1.039999999999929869 ) ) ;
#197 = DATE_AND_TIME ( #173, #129 ) ;
#198 = CARTESIAN_POINT ( 'NONE',  ( 0.0000000000000000000, 1.285758296706851804E-13, -1050.956000000000358 ) ) ;
#199 = APPROVAL ( #236, 'UNSPECIFIED' ) ;
#200 = CARTESIAN_POINT ( 'NONE',  ( 12.50000000000000178, 1.530808498934191719E-15, 0.9657337882129648499 ) ) ;
#201 = DESIGN_CONTEXT ( 'detailed design', #17, 'design' ) ;
#202 = CARTESIAN_POINT ( 'NONE',  ( -12.50000000000000178, 1.543054966925665273E-15, -1.040000000000000036 ) ) ;
#203 = AXIS2_PLACEMENT_3D ( 'NONE', #145, #281, #334 ) ;
#204 = CARTESIAN_POINT ( 'NONE',  ( 0.0000000000000000000, 0.0000000000000000000, 0.9657337882129648499 ) ) ;
#205 = DIRECTION ( 'NONE',  ( -1.000000000000000000, 0.0000000000000000000, 0.0000000000000000000 ) ) ;
#206 = DIRECTION ( 'NONE',  ( -1.000000000000000000, 0.0000000000000000000, 0.0000000000000000000 ) ) ;
#207 = VECTOR ( 'NONE', #5, 1000.000000000000000 ) ;
#208 = AXIS2_PLACEMENT_3D ( 'NONE', #92, #167, #6 ) ;
#209 =( LENGTH_UNIT ( ) NAMED_UNIT ( * ) SI_UNIT ( .MILLI., .METRE. ) );
#210 = EDGE_LOOP ( 'NONE', ( #158, #47, #52, #185, #333, #123 ) ) ;
#211 = DIRECTION ( 'NONE',  ( 0.0000000000000000000, 0.0000000000000000000, 1.000000000000000000 ) ) ;
#212 = ORIENTED_EDGE ( 'NONE', *, *, #101, .F. ) ;
#213 = CARTESIAN_POINT ( 'NONE',  ( 0.0000000000000000000, 0.0000000000000000000, 0.0000000000000000000 ) ) ;
#214 = ORIENTED_EDGE ( 'NONE', *, *, #42, .F. ) ;
#215 = PERSON_AND_ORGANIZATION_ROLE ( 'classification_officer' ) ;
#216 = APPLICATION_CONTEXT ( 'configuration controlled 3d designs of mechanical parts and assemblies' ) ;
#217 = ADVANCED_BREP_SHAPE_REPRESENTATION ( 'TTN047617-E0W', ( #317, #353 ), #280 ) ;
#218 = AXIS2_PLACEMENT_3D ( 'NONE', #2, #244, #136 ) ;
#219 = PERSON ( 'UNSPECIFIED', 'UNSPECIFIED', 'UNSPECIFIED', ('UNSPECIFIED'), ('UNSPECIFIED'), ('UNSPECIFIED') ) ;
#220 = ORGANIZATION ( 'UNSPECIFIED', 'UNSPECIFIED', '' ) ;
#221 = ORIENTED_EDGE ( 'NONE', *, *, #299, .F. ) ;
#222 = ADVANCED_FACE ( 'NONE', ( #133 ), #295, .T. ) ;
#223 = CYLINDRICAL_SURFACE ( 'NONE', #218, 12.70000000000000284 ) ;
#224 = AXIS2_PLACEMENT_3D ( 'NONE', #337, #34, #4 ) ;
#225 = DIRECTION ( 'NONE',  ( -1.000000000000000000, 0.0000000000000000000, 0.0000000000000000000 ) ) ;
#226 = CARTESIAN_POINT ( 'NONE',  ( -12.70000000000000284, 1.555301434917138827E-15, -0.8400000000000001910 ) ) ;
#227 = CARTESIAN_POINT ( 'NONE',  ( 0.0000000000000000000, 0.0000000000000000000, -0.8400000000000001910 ) ) ;
#228 = DIRECTION ( 'NONE',  ( -1.000000000000000000, 0.0000000000000000000, 0.0000000000000000000 ) ) ;
#229 = PERSON_AND_ORGANIZATION ( #219, #220 ) ;
#230 = CARTESIAN_POINT ( 'NONE',  ( 0.0000000000000000000, 1.285758296706851804E-13, -1050.956000000000358 ) ) ;
#231 = CARTESIAN_POINT ( 'NONE',  ( 0.0000000000000000000, 3.845263951002266188E-16, -1.040000000000000036 ) ) ;
#232 = CIRCLE ( 'NONE', #359, 12.70000000000000284 ) ;
#233 =( NAMED_UNIT ( * ) PLANE_ANGLE_UNIT ( ) SI_UNIT ( $, .RADIAN. ) );
#234 = DATE_TIME_ROLE ( 'classification_date' ) ;
#235 = PRODUCT_DEFINITION_FORMATION_WITH_SPECIFIED_SOURCE ( 'ANY', '', #153, .NOT_KNOWN. ) ;
#236 = APPROVAL_STATUS ( 'not_yet_approved' ) ;
#237 = AXIS2_PLACEMENT_3D ( 'NONE', #198, #141, #314 ) ;
#238 = VERTEX_POINT ( 'NONE', #202 ) ;
#239 = EDGE_CURVE ( 'NONE', #36, #44, #98, .T. ) ;
#240 = ADVANCED_FACE ( 'NONE', ( #22 ), #66, .T. ) ;
#241 = CONICAL_SURFACE ( 'NONE', #275, 12.70000000000000284, 0.7853981633974496113 ) ;
#242 = CC_DESIGN_APPROVAL ( #199, ( #235 ) ) ;
#243 = DATE_AND_TIME ( #276, #270 ) ;
#244 = DIRECTION ( 'NONE',  ( -0.0000000000000000000, 3.061515884555943146E-16, -1.000000000000000000 ) ) ;
#245 = ORIENTED_EDGE ( 'NONE', *, *, #278, .F. ) ;
#246 = CIRCLE ( 'NONE', #108, 12.70000000000000284 ) ;
#247 = DIRECTION ( 'NONE',  ( -0.0000000000000000000, -0.0000000000000000000, -1.000000000000000000 ) ) ;
#248 = DIRECTION ( 'NONE',  ( -0.0000000000000000000, -0.0000000000000000000, -1.000000000000000000 ) ) ;
#249 = VERTEX_POINT ( 'NONE', #168 ) ;
#250 = DIRECTION ( 'NONE',  ( 1.000000000000000000, 1.224646799147353207E-16, 3.749275628560213616E-32 ) ) ;
#251 = PRODUCT_RELATED_PRODUCT_CATEGORY ( 'detail', '', ( #153 ) ) ;
#252 = CARTESIAN_POINT ( 'NONE',  ( 0.0000000000000000000, 0.0000000000000000000, 0.7657337882129655604 ) ) ;
#253 = ORIENTED_EDGE ( 'NONE', *, *, #78, .T. ) ;
#254 = ORIENTED_EDGE ( 'NONE', *, *, #259, .T. ) ;
#255 = AXIS2_PLACEMENT_3D ( 'NONE', #291, #174, #13 ) ;
#256 = ORIENTED_EDGE ( 'NONE', *, *, #83, .T. ) ;
#257 = CARTESIAN_POINT ( 'NONE',  ( 0.0000000000000000000, 0.0000000000000000000, -0.8400000000000001910 ) ) ;
#258 = APPROVAL_PERSON_ORGANIZATION ( #73, #336, #48 ) ;
#259 = EDGE_CURVE ( 'NONE', #341, #128, #289, .T. ) ;
#260 = DIRECTION ( 'NONE',  ( -0.0000000000000000000, 3.061515884555943146E-16, -1.000000000000000000 ) ) ;
#261 = CARTESIAN_POINT ( 'NONE',  ( 0.0000000000000000000, 0.0000000000000000000, 0.7657337882129655604 ) ) ;
#262 = AXIS2_PLACEMENT_3D ( 'NONE', #257, #68, #205 ) ;
#263 = ORIENTED_EDGE ( 'NONE', *, *, #159, .T. ) ;
#264 = CARTESIAN_POINT ( 'NONE',  ( 0.0000000000000000000, 0.0000000000000000000, 0.9657337882129648499 ) ) ;
#265 = APPROVAL_DATE_TIME ( #338, #191 ) ;
#266 = EDGE_CURVE ( 'NONE', #111, #187, #67, .T. ) ;
#267 = APPROVAL_STATUS ( 'not_yet_approved' ) ;
#268 = ORIENTED_EDGE ( 'NONE', *, *, #278, .T. ) ;
#269 = CONICAL_SURFACE ( 'NONE', #347, 12.70000000000000284, 0.7853981633974496113 ) ;
#270 = LOCAL_TIME ( 11, 5, 32.00000000000000000, #134 ) ;
#271 = AXIS2_PLACEMENT_3D ( 'NONE', #71, #99, #97 ) ;
#272 = CALENDAR_DATE ( 2019, 30, 5 ) ;
#273 = ORIENTED_EDGE ( 'NONE', *, *, #159, .F. ) ;
#274 = LINE ( 'NONE', #39, #152 ) ;
#275 = AXIS2_PLACEMENT_3D ( 'NONE', #100, #70, #121 ) ;
#276 = CALENDAR_DATE ( 2019, 30, 5 ) ;
#277 = DIRECTION ( 'NONE',  ( -0.0000000000000000000, 3.061515884555943146E-16, -1.000000000000000000 ) ) ;
#278 = EDGE_CURVE ( 'NONE', #165, #111, #274, .T. ) ;
#279 = DIRECTION ( 'NONE',  ( -1.224646799147353207E-16, 1.000000000000000000, 0.0000000000000000000 ) ) ;
#280 =( GEOMETRIC_REPRESENTATION_CONTEXT ( 3 ) GLOBAL_UNCERTAINTY_ASSIGNED_CONTEXT ( ( #355 ) ) GLOBAL_UNIT_ASSIGNED_CONTEXT ( ( #209, #233, #43 ) ) REPRESENTATION_CONTEXT ( 'NONE', 'WORKASPACE' ) );
#281 = DIRECTION ( 'NONE',  ( -0.0000000000000000000, -0.0000000000000000000, -1.000000000000000000 ) ) ;
#282 = ORIENTED_EDGE ( 'NONE', *, *, #181, .T. ) ;
#283 = EDGE_CURVE ( 'NONE', #170, #341, #59, .T. ) ;
#284 = PERSON_AND_ORGANIZATION ( #219, #220 ) ;
#285 = CIRCLE ( 'NONE', #23, 12.70000000000000284 ) ;
#286 = CARTESIAN_POINT ( 'NONE',  ( -12.50000000000000178, 0.0000000000000000000, 0.9657337882129648499 ) ) ;
#287 = ORIENTED_EDGE ( 'NONE', *, *, #340, .T. ) ;
#288 = DIRECTION ( 'NONE',  ( 0.7071067811865499042, 8.659560562354961208E-17, -0.7071067811865452413 ) ) ;
#289 = LINE ( 'NONE', #122, #161 ) ;
#290 = PERSON_AND_ORGANIZATION ( #219, #220 ) ;
#291 = CARTESIAN_POINT ( 'NONE',  ( 0.0000000000000000000, 0.0000000000000000000, 0.7657337882129655604 ) ) ;
#292 = ORIENTED_EDGE ( 'NONE', *, *, #326, .T. ) ;
#293 = DIRECTION ( 'NONE',  ( -0.0000000000000000000, 3.061515884555943146E-16, -1.000000000000000000 ) ) ;
#294 = DIRECTION ( 'NONE',  ( 1.000000000000000000, 0.0000000000000000000, 0.0000000000000000000 ) ) ;
#295 = SPHERICAL_SURFACE ( 'NONE', #208, 1051.996000000000322 ) ;
#296 = AXIS2_PLACEMENT_3D ( 'NONE', #11, #146, #74 ) ;
#297 = LINE ( 'NONE', #84, #8 ) ;
#298 = ADVANCED_FACE ( 'NONE', ( #351 ), #49, .T. ) ;
#299 = EDGE_CURVE ( 'NONE', #238, #165, #323, .T. ) ;
#300 = EDGE_LOOP ( 'NONE', ( #37, #253, #329, #254, #76, #214 ) ) ;
#301 = CIRCLE ( 'NONE', #69, 12.70000000000000284 ) ;
#302 = ADVANCED_FACE ( 'NONE', ( #356 ), #189, .T. ) ;
#303 = CARTESIAN_POINT ( 'NONE',  ( 0.0000000000000000000, 0.0000000000000000000, 0.9657337882129648499 ) ) ;
#304 = FACE_OUTER_BOUND ( 'NONE', #300, .T. ) ;
#305 = AXIS2_PLACEMENT_3D ( 'NONE', #230, #250, #279 ) ;
#306 = CIRCLE ( 'NONE', #255, 12.70000000000000284 ) ;
#307 = CARTESIAN_POINT ( 'NONE',  ( 12.50000000000000178, 1.543054966925665273E-15, 0.9657337882129648499 ) ) ;
#308 = CARTESIAN_POINT ( 'NONE',  ( 1.555301434917138827E-15, -12.70000000000000284, -0.8400000000000001910 ) ) ;
#309 = DIRECTION ( 'NONE',  ( -1.000000000000000000, 0.0000000000000000000, 0.0000000000000000000 ) ) ;
#310 = ORIENTED_EDGE ( 'NONE', *, *, #283, .F. ) ;
#311 = CIRCLE ( 'NONE', #320, 12.50000000000000178 ) ;
#312 = CARTESIAN_POINT ( 'NONE',  ( 0.0000000000000000000, 0.0000000000000000000, -0.8400000000000001910 ) ) ;
#313 = ORIENTED_EDGE ( 'NONE', *, *, #42, .T. ) ;
#314 = DIRECTION ( 'NONE',  ( 0.0000000000000000000, 1.000000000000000000, 2.110698186352716487E-16 ) ) ;
#315 = EDGE_LOOP ( 'NONE', ( #175, #263, #150, #131 ) ) ;
#316 = VECTOR ( 'NONE', #288, 1000.000000000000114 ) ;
#317 = MANIFOLD_SOLID_BREP ( 'TTN047618-1-solid1', #195 ) ;
#318 = DIRECTION ( 'NONE',  ( 0.7071067811865484609, 0.0000000000000000000, 0.7071067811865465735 ) ) ;
#319 = EDGE_LOOP ( 'NONE', ( #346, #183, #160, #287, #325, #7 ) ) ;
#320 = AXIS2_PLACEMENT_3D ( 'NONE', #65, #114, #309 ) ;
#321 = AXIS2_PLACEMENT_3D ( 'NONE', #303, #27, #225 ) ;
#322 = APPROVAL_STATUS ( 'not_yet_approved' ) ;
#323 = CIRCLE ( 'NONE', #271, 12.50000000000000178 ) ;
#324 = PERSON_AND_ORGANIZATION_ROLE ( 'design_owner' ) ;
#325 = ORIENTED_EDGE ( 'NONE', *, *, #181, .F. ) ;
#326 = EDGE_CURVE ( 'NONE', #16, #44, #137, .T. ) ;
#327 = ORIENTED_EDGE ( 'NONE', *, *, #340, .F. ) ;
#328 = LOCAL_TIME ( 11, 5, 32.00000000000000000, #45 ) ;
#329 = ORIENTED_EDGE ( 'NONE', *, *, #283, .T. ) ;
#330 = CARTESIAN_POINT ( 'NONE',  ( 0.0000000000000000000, 12.70000000000000284, 0.7657337882129655604 ) ) ;
#331 = EDGE_CURVE ( 'NONE', #187, #249, #285, .T. ) ;
#332 = ORIENTED_EDGE ( 'NONE', *, *, #143, .T. ) ;
#333 = ORIENTED_EDGE ( 'NONE', *, *, #348, .F. ) ;
#334 = DIRECTION ( 'NONE',  ( -1.000000000000000000, 0.0000000000000000000, 0.0000000000000000000 ) ) ;
#335 = ORIENTED_EDGE ( 'NONE', *, *, #299, .T. ) ;
#336 = APPROVAL ( #322, 'UNSPECIFIED' ) ;
#337 = CARTESIAN_POINT ( 'NONE',  ( 0.0000000000000000000, 1.285758296706851804E-13, -1050.956000000000358 ) ) ;
#338 = DATE_AND_TIME ( #272, #350 ) ;
#339 = DIRECTION ( 'NONE',  ( -0.0000000000000000000, -0.0000000000000000000, -1.000000000000000000 ) ) ;
#340 = EDGE_CURVE ( 'NONE', #16, #164, #135, .T. ) ;
#341 = VERTEX_POINT ( 'NONE', #286 ) ;
#342 = EDGE_LOOP ( 'NONE', ( #273, #26, #96, #310 ) ) ;
#343 = DIRECTION ( 'NONE',  ( -0.0000000000000000000, -0.0000000000000000000, -1.000000000000000000 ) ) ;
#344 = DATE_AND_TIME ( #93, #328 ) ;
#345 = DIRECTION ( 'NONE',  ( -0.7071067811865499042, 0.0000000000000000000, -0.7071067811865452413 ) ) ;
#346 = ORIENTED_EDGE ( 'NONE', *, *, #25, .F. ) ;
#347 = AXIS2_PLACEMENT_3D ( 'NONE', #60, #192, #31 ) ;
#348 = EDGE_CURVE ( 'NONE', #128, #16, #306, .T. ) ;
#349 = DIRECTION ( 'NONE',  ( -0.0000000000000000000, -0.0000000000000000000, -1.000000000000000000 ) ) ;
#350 = LOCAL_TIME ( 11, 5, 32.00000000000000000, #148 ) ;
#351 = FACE_OUTER_BOUND ( 'NONE', #210, .T. ) ;
#352 = SHAPE_DEFINITION_REPRESENTATION ( #64, #217 ) ;
#353 = AXIS2_PLACEMENT_3D ( 'NONE', #213, #211, #294 ) ;
#354 = APPROVAL_ROLE ( '' ) ;
#355 = UNCERTAINTY_MEASURE_WITH_UNIT (LENGTH_MEASURE( 1.000000000000000082E-05 ), #209, 'distance_accuracy_value', 'NONE');
#356 = FACE_OUTER_BOUND ( 'NONE', #319, .T. ) ;
#357 = AXIS2_PLACEMENT_3D ( 'NONE', #61, #247, #95 ) ;
#358 = ADVANCED_FACE ( 'NONE', ( #30 ), #241, .T. ) ;
#359 = AXIS2_PLACEMENT_3D ( 'NONE', #1, #190, #162 ) ;
#360 = CIRCLE ( 'NONE', #82, 12.70000000000000284 ) ;
#361 = FACE_OUTER_BOUND ( 'NONE', #125, .T. ) ;
ENDSEC;
END-ISO-10303-21;
