ISO-10303-21;
HEADER;
FILE_DESCRIPTION (( 'STEP AP203' ),
    '1' );
FILE_NAME ('Web Model 47517.STEP',
    '2017-01-31T15:20:41',
    ( '' ),
    ( '' ),
    'SwSTEP 2.0',
    'SolidWorks 2016',
    '' );
FILE_SCHEMA (( 'CONFIG_CONTROL_DESIGN' ));
ENDSEC;

DATA;
#1 = APPROVAL ( #85, 'UNSPECIFIED' ) ;
#2 = SECURITY_CLASSIFICATION_LEVEL ( 'unclassified' ) ;
#3 = CIRCLE ( 'NONE', #49, 6.250000000000000000 ) ;
#4 = CC_DESIGN_PERSON_AND_ORGANIZATION_ASSIGNMENT ( #38, #72, ( #129 ) ) ;
#5 = APPROVAL_PERSON_ORGANIZATION ( #151, #1, #35 ) ;
#6 = EDGE_CURVE ( 'NONE', #138, #78, #33, .T. ) ;
#7 = ADVANCED_FACE ( 'NONE', ( #51 ), #131, .T. ) ;
#8 = DIRECTION ( 'NONE',  ( 1.000000000000000000, 0.0000000000000000000, 0.0000000000000000000 ) ) ;
#9 = CARTESIAN_POINT ( 'NONE',  ( -6.250000000000000000, 7.654042494670957600E-016, -3.000000000000000000 ) ) ;
#10 = CALENDAR_DATE ( 2017, 31, 1 ) ;
#11 = DIRECTION ( 'NONE',  ( 1.000000000000000000, 0.0000000000000000000, 0.0000000000000000000 ) ) ;
#12 = PLANE ( 'NONE',  #141 ) ;
#13 = CC_DESIGN_SECURITY_CLASSIFICATION ( #104, ( #52 ) ) ;
#14 = AXIS2_PLACEMENT_3D ( 'NONE', #76, #89, #147 ) ;
#15 = LINE ( 'NONE', #128, #124 ) ;
#16 = CC_DESIGN_PERSON_AND_ORGANIZATION_ASSIGNMENT ( #134, #20, ( #104 ) ) ;
#17 = VERTEX_POINT ( 'NONE', #30 ) ;
#18 = EDGE_CURVE ( 'NONE', #17, #82, #88, .T. ) ;
#19 = AXIS2_PLACEMENT_3D ( 'NONE', #55, #66, #126 ) ;
#20 = PERSON_AND_ORGANIZATION_ROLE ( 'classification_officer' ) ;
#21 = ORIENTED_EDGE ( 'NONE', *, *, #127, .T. ) ;
#22 = EDGE_LOOP ( 'NONE', ( #42, #168 ) ) ;
#23 = CALENDAR_DATE ( 2017, 31, 1 ) ;
#24 =( NAMED_UNIT ( * ) PLANE_ANGLE_UNIT ( ) SI_UNIT ( $, .RADIAN. ) );
#25 = ADVANCED_FACE ( 'NONE', ( #83 ), #136, .T. ) ;
#26 = DIRECTION ( 'NONE',  ( 0.0000000000000000000, 0.0000000000000000000, 1.000000000000000000 ) ) ;
#27 = EDGE_LOOP ( 'NONE', ( #54, #146, #21, #37 ) ) ;
#28 = DIRECTION ( 'NONE',  ( 0.0000000000000000000, 0.0000000000000000000, 1.000000000000000000 ) ) ;
#29 = PERSON_AND_ORGANIZATION_ROLE ( 'design_owner' ) ;
#30 = CARTESIAN_POINT ( 'NONE',  ( 6.250000000000000000, 0.0000000000000000000, 0.0000000000000000000 ) ) ;
#31 = AXIS2_PLACEMENT_3D ( 'NONE', #172, #137, #165 ) ;
#32 = MANIFOLD_SOLID_BREP ( 'Extrude1', #98 ) ;
#33 = CIRCLE ( 'NONE', #64, 6.250000000000000000 ) ;
#34 = APPROVAL_PERSON_ORGANIZATION ( #157, #95, #143 ) ;
#35 = APPROVAL_ROLE ( '' ) ;
#36 =( GEOMETRIC_REPRESENTATION_CONTEXT ( 3 ) GLOBAL_UNCERTAINTY_ASSIGNED_CONTEXT ( ( #133 ) ) GLOBAL_UNIT_ASSIGNED_CONTEXT ( ( #135, #24, #105 ) ) REPRESENTATION_CONTEXT ( 'NONE', 'WORKASPACE' ) );
#37 = ORIENTED_EDGE ( 'NONE', *, *, #152, .F. ) ;
#38 = PERSON_AND_ORGANIZATION ( #50, #167 ) ;
#39 = AXIS2_PLACEMENT_3D ( 'NONE', #164, #110, #11 ) ;
#40 = DIRECTION ( 'NONE',  ( 0.0000000000000000000, 0.0000000000000000000, 1.000000000000000000 ) ) ;
#41 = DIRECTION ( 'NONE',  ( 0.0000000000000000000, 0.0000000000000000000, 1.000000000000000000 ) ) ;
#42 = ORIENTED_EDGE ( 'NONE', *, *, #18, .T. ) ;
#43 = DIRECTION ( 'NONE',  ( 1.000000000000000000, 0.0000000000000000000, -0.0000000000000000000 ) ) ;
#44 = CARTESIAN_POINT ( 'NONE',  ( 0.0000000000000000000, 0.0000000000000000000, -3.000000000000000000 ) ) ;
#45 = DATE_AND_TIME ( #23, #173 ) ;
#46 = CC_DESIGN_PERSON_AND_ORGANIZATION_ASSIGNMENT ( #69, #169, ( #52 ) ) ;
#47 = FACE_OUTER_BOUND ( 'NONE', #74, .T. ) ;
#48 = DATE_AND_TIME ( #65, #102 ) ;
#49 = AXIS2_PLACEMENT_3D ( 'NONE', #106, #53, #8 ) ;
#50 = PERSON ( 'UNSPECIFIED', 'UNSPECIFIED', 'UNSPECIFIED', ('UNSPECIFIED'), ('UNSPECIFIED'), ('UNSPECIFIED') ) ;
#51 = FACE_OUTER_BOUND ( 'NONE', #27, .T. ) ;
#52 = PRODUCT_DEFINITION_FORMATION_WITH_SPECIFIED_SOURCE ( 'ANY', '', #120, .NOT_KNOWN. ) ;
#53 = DIRECTION ( 'NONE',  ( 0.0000000000000000000, 0.0000000000000000000, 1.000000000000000000 ) ) ;
#54 = ORIENTED_EDGE ( 'NONE', *, *, #84, .F. ) ;
#55 = CARTESIAN_POINT ( 'NONE',  ( 0.0000000000000000000, 0.0000000000000000000, 0.0000000000000000000 ) ) ;
#56 = ADVANCED_BREP_SHAPE_REPRESENTATION ( 'Web Model 47517', ( #32, #86 ), #36 ) ;
#57 = ORIENTED_EDGE ( 'NONE', *, *, #160, .T. ) ;
#58 = FACE_OUTER_BOUND ( 'NONE', #22, .T. ) ;
#59 = CC_DESIGN_APPROVAL ( #1, ( #52 ) ) ;
#60 = PERSON_AND_ORGANIZATION_ROLE ( 'creator' ) ;
#61 = EDGE_LOOP ( 'NONE', ( #57, #125, #92, #175 ) ) ;
#62 = APPLICATION_CONTEXT ( 'configuration controlled 3d designs of mechanical parts and assemblies' ) ;
#63 = APPROVAL_DATE_TIME ( #170, #95 ) ;
#64 = AXIS2_PLACEMENT_3D ( 'NONE', #91, #28, #139 ) ;
#65 = CALENDAR_DATE ( 2017, 31, 1 ) ;
#66 = DIRECTION ( 'NONE',  ( 0.0000000000000000000, 0.0000000000000000000, 1.000000000000000000 ) ) ;
#67 = DIRECTION ( 'NONE',  ( 0.0000000000000000000, 0.0000000000000000000, 1.000000000000000000 ) ) ;
#68 = MECHANICAL_CONTEXT ( 'NONE', #161, 'mechanical' ) ;
#69 = PERSON_AND_ORGANIZATION ( #50, #167 ) ;
#70 = LINE ( 'NONE', #108, #150 ) ;
#71 = APPLICATION_PROTOCOL_DEFINITION ( 'international standard', 'config_control_design', 1994, #62 ) ;
#72 = PERSON_AND_ORGANIZATION_ROLE ( 'creator' ) ;
#73 = CALENDAR_DATE ( 2017, 31, 1 ) ;
#74 = EDGE_LOOP ( 'NONE', ( #87, #159 ) ) ;
#75 = CALENDAR_DATE ( 2017, 31, 1 ) ;
#76 = CARTESIAN_POINT ( 'NONE',  ( 0.0000000000000000000, 0.0000000000000000000, -3.000000000000000000 ) ) ;
#77 = DIRECTION ( 'NONE',  ( 1.000000000000000000, 0.0000000000000000000, 0.0000000000000000000 ) ) ;
#78 = VERTEX_POINT ( 'NONE', #93 ) ;
#79 = CC_DESIGN_APPROVAL ( #95, ( #104 ) ) ;
#80 = COORDINATED_UNIVERSAL_TIME_OFFSET ( 5, 0, .BEHIND. ) ;
#81 = COORDINATED_UNIVERSAL_TIME_OFFSET ( 5, 0, .BEHIND. ) ;
#82 = VERTEX_POINT ( 'NONE', #174 ) ;
#83 = FACE_OUTER_BOUND ( 'NONE', #61, .T. ) ;
#84 = EDGE_CURVE ( 'NONE', #138, #82, #15, .T. ) ;
#85 = APPROVAL_STATUS ( 'not_yet_approved' ) ;
#86 = AXIS2_PLACEMENT_3D ( 'NONE', #107, #26, #77 ) ;
#87 = ORIENTED_EDGE ( 'NONE', *, *, #160, .F. ) ;
#88 = CIRCLE ( 'NONE', #19, 6.250000000000000000 ) ;
#89 = DIRECTION ( 'NONE',  ( 0.0000000000000000000, 0.0000000000000000000, 1.000000000000000000 ) ) ;
#90 = APPROVAL_PERSON_ORGANIZATION ( #132, #112, #163 ) ;
#91 = CARTESIAN_POINT ( 'NONE',  ( 0.0000000000000000000, 0.0000000000000000000, -3.000000000000000000 ) ) ;
#92 = ORIENTED_EDGE ( 'NONE', *, *, #18, .F. ) ;
#93 = CARTESIAN_POINT ( 'NONE',  ( 6.250000000000000000, 0.0000000000000000000, -3.000000000000000000 ) ) ;
#94 = LOCAL_TIME ( 10, 20, 41.00000000000000000, #113 ) ;
#95 = APPROVAL ( #100, 'UNSPECIFIED' ) ;
#96 = DIRECTION ( 'NONE',  ( 0.0000000000000000000, 0.0000000000000000000, 1.000000000000000000 ) ) ;
#97 = CIRCLE ( 'NONE', #149, 6.250000000000000000 ) ;
#98 = CLOSED_SHELL ( 'NONE', ( #25, #7, #148, #123 ) ) ;
#99 = CC_DESIGN_DATE_AND_TIME_ASSIGNMENT ( #48, #115, ( #129 ) ) ;
#100 = APPROVAL_STATUS ( 'not_yet_approved' ) ;
#101 = DESIGN_CONTEXT ( 'detailed design', #62, 'design' ) ;
#102 = LOCAL_TIME ( 10, 20, 41.00000000000000000, #144 ) ;
#103 = PRODUCT_DEFINITION_SHAPE ( 'NONE', 'NONE',  #129 ) ;
#104 = SECURITY_CLASSIFICATION ( '', '', #2 ) ;
#105 =( NAMED_UNIT ( * ) SI_UNIT ( $, .STERADIAN. ) SOLID_ANGLE_UNIT ( ) );
#106 = CARTESIAN_POINT ( 'NONE',  ( 0.0000000000000000000, 0.0000000000000000000, 0.0000000000000000000 ) ) ;
#107 = CARTESIAN_POINT ( 'NONE',  ( 0.0000000000000000000, 0.0000000000000000000, 0.0000000000000000000 ) ) ;
#108 = CARTESIAN_POINT ( 'NONE',  ( 6.250000000000000000, 0.0000000000000000000, -3.000000000000000000 ) ) ;
#109 = CC_DESIGN_PERSON_AND_ORGANIZATION_ASSIGNMENT ( #145, #60, ( #52 ) ) ;
#110 = DIRECTION ( 'NONE',  ( 0.0000000000000000000, 0.0000000000000000000, 1.000000000000000000 ) ) ;
#111 = DIRECTION ( 'NONE',  ( 1.000000000000000000, 0.0000000000000000000, 0.0000000000000000000 ) ) ;
#112 = APPROVAL ( #117, 'UNSPECIFIED' ) ;
#113 = COORDINATED_UNIVERSAL_TIME_OFFSET ( 5, 0, .BEHIND. ) ;
#114 = LOCAL_TIME ( 10, 20, 41.00000000000000000, #80 ) ;
#115 = DATE_TIME_ROLE ( 'creation_date' ) ;
#116 = CC_DESIGN_PERSON_AND_ORGANIZATION_ASSIGNMENT ( #142, #29, ( #120 ) ) ;
#117 = APPROVAL_STATUS ( 'not_yet_approved' ) ;
#118 = APPROVAL_DATE_TIME ( #153, #112 ) ;
#119 = APPROVAL_DATE_TIME ( #154, #1 ) ;
#120 = PRODUCT ( 'Web Model 47517', 'Web Model 47517', '', ( #68 ) ) ;
#121 = CC_DESIGN_APPROVAL ( #112, ( #129 ) ) ;
#122 = APPLICATION_PROTOCOL_DEFINITION ( 'international standard', 'config_control_design', 1994, #161 ) ;
#123 = ADVANCED_FACE ( 'NONE', ( #58 ), #12, .T. ) ;
#124 = VECTOR ( 'NONE', #41, 1000.000000000000000 ) ;
#125 = ORIENTED_EDGE ( 'NONE', *, *, #84, .T. ) ;
#126 = DIRECTION ( 'NONE',  ( 1.000000000000000000, 0.0000000000000000000, 0.0000000000000000000 ) ) ;
#127 = EDGE_CURVE ( 'NONE', #78, #17, #70, .T. ) ;
#128 = CARTESIAN_POINT ( 'NONE',  ( -6.250000000000000000, 7.654042494670957600E-016, -3.000000000000000000 ) ) ;
#129 = PRODUCT_DEFINITION ( 'UNKNOWN', '', #52, #101 ) ;
#130 = COORDINATED_UNIVERSAL_TIME_OFFSET ( 5, 0, .BEHIND. ) ;
#131 = CYLINDRICAL_SURFACE ( 'NONE', #31, 6.250000000000000000 ) ;
#132 = PERSON_AND_ORGANIZATION ( #50, #167 ) ;
#133 = UNCERTAINTY_MEASURE_WITH_UNIT (LENGTH_MEASURE( 1.000000000000000100E-005 ), #135, 'distance_accuracy_value', 'NONE');
#134 = PERSON_AND_ORGANIZATION ( #50, #167 ) ;
#135 =( LENGTH_UNIT ( ) NAMED_UNIT ( * ) SI_UNIT ( .MILLI., .METRE. ) );
#136 = CYLINDRICAL_SURFACE ( 'NONE', #39, 6.250000000000000000 ) ;
#137 = DIRECTION ( 'NONE',  ( 0.0000000000000000000, 0.0000000000000000000, 1.000000000000000000 ) ) ;
#138 = VERTEX_POINT ( 'NONE', #9 ) ;
#139 = DIRECTION ( 'NONE',  ( 1.000000000000000000, 0.0000000000000000000, 0.0000000000000000000 ) ) ;
#140 = CC_DESIGN_DATE_AND_TIME_ASSIGNMENT ( #45, #156, ( #104 ) ) ;
#141 = AXIS2_PLACEMENT_3D ( 'NONE', #171, #67, #43 ) ;
#142 = PERSON_AND_ORGANIZATION ( #50, #167 ) ;
#143 = APPROVAL_ROLE ( '' ) ;
#144 = COORDINATED_UNIVERSAL_TIME_OFFSET ( 5, 0, .BEHIND. ) ;
#145 = PERSON_AND_ORGANIZATION ( #50, #167 ) ;
#146 = ORIENTED_EDGE ( 'NONE', *, *, #6, .T. ) ;
#147 = DIRECTION ( 'NONE',  ( 1.000000000000000000, 0.0000000000000000000, -0.0000000000000000000 ) ) ;
#148 = ADVANCED_FACE ( 'NONE', ( #47 ), #162, .F. ) ;
#149 = AXIS2_PLACEMENT_3D ( 'NONE', #44, #96, #111 ) ;
#150 = VECTOR ( 'NONE', #40, 1000.000000000000000 ) ;
#151 = PERSON_AND_ORGANIZATION ( #50, #167 ) ;
#152 = EDGE_CURVE ( 'NONE', #82, #17, #3, .T. ) ;
#153 = DATE_AND_TIME ( #10, #158 ) ;
#154 = DATE_AND_TIME ( #75, #114 ) ;
#155 = PRODUCT_RELATED_PRODUCT_CATEGORY ( 'detail', '', ( #120 ) ) ;
#156 = DATE_TIME_ROLE ( 'classification_date' ) ;
#157 = PERSON_AND_ORGANIZATION ( #50, #167 ) ;
#158 = LOCAL_TIME ( 10, 20, 41.00000000000000000, #130 ) ;
#159 = ORIENTED_EDGE ( 'NONE', *, *, #6, .F. ) ;
#160 = EDGE_CURVE ( 'NONE', #78, #138, #97, .T. ) ;
#161 = APPLICATION_CONTEXT ( 'configuration controlled 3d designs of mechanical parts and assemblies' ) ;
#162 = PLANE ( 'NONE',  #14 ) ;
#163 = APPROVAL_ROLE ( '' ) ;
#164 = CARTESIAN_POINT ( 'NONE',  ( 0.0000000000000000000, 0.0000000000000000000, -3.000000000000000000 ) ) ;
#165 = DIRECTION ( 'NONE',  ( 1.000000000000000000, 0.0000000000000000000, 0.0000000000000000000 ) ) ;
#166 = SHAPE_DEFINITION_REPRESENTATION ( #103, #56 ) ;
#167 = ORGANIZATION ( 'UNSPECIFIED', 'UNSPECIFIED', '' ) ;
#168 = ORIENTED_EDGE ( 'NONE', *, *, #152, .T. ) ;
#169 = PERSON_AND_ORGANIZATION_ROLE ( 'design_supplier' ) ;
#170 = DATE_AND_TIME ( #73, #94 ) ;
#171 = CARTESIAN_POINT ( 'NONE',  ( 0.0000000000000000000, 0.0000000000000000000, 0.0000000000000000000 ) ) ;
#172 = CARTESIAN_POINT ( 'NONE',  ( 0.0000000000000000000, 0.0000000000000000000, -3.000000000000000000 ) ) ;
#173 = LOCAL_TIME ( 10, 20, 41.00000000000000000, #81 ) ;
#174 = CARTESIAN_POINT ( 'NONE',  ( -6.250000000000000000, 7.654042494670957600E-016, 0.0000000000000000000 ) ) ;
#175 = ORIENTED_EDGE ( 'NONE', *, *, #127, .F. ) ;
ENDSEC;
END-ISO-10303-21;
