ISO-10303-21;
HEADER;
FILE_DESCRIPTION (( 'STEP AP203' ),
    '1' );
FILE_NAME ('Web Model 66202.STEP',
    '2017-01-31T19:37:22',
    ( '' ),
    ( '' ),
    'SwSTEP 2.0',
    'SolidWorks 2016',
    '' );
FILE_SCHEMA (( 'CONFIG_CONTROL_DESIGN' ));
ENDSEC;

DATA;
#1 = CYLINDRICAL_SURFACE ( 'NONE', #34, 20.00000000000000000 ) ;
#2 = ORIENTED_EDGE ( 'NONE', *, *, #40, .T. ) ;
#3 = EDGE_CURVE ( 'NONE', #38, #107, #141, .T. ) ;
#4 = CARTESIAN_POINT ( 'NONE',  ( 0.0000000000000000000, 0.0000000000000000000, 4.000000000000000000 ) ) ;
#5 = PRODUCT ( 'Web Model 66202', 'Web Model 66202', '', ( #119 ) ) ;
#6 = CARTESIAN_POINT ( 'NONE',  ( 0.0000000000000000000, 0.0000000000000000000, 4.000000000000000000 ) ) ;
#7 = APPROVAL_PERSON_ORGANIZATION ( #66, #74, #93 ) ;
#8 = PERSON_AND_ORGANIZATION_ROLE ( 'classification_officer' ) ;
#9 = AXIS2_PLACEMENT_3D ( 'NONE', #4, #58, #90 ) ;
#10 = CC_DESIGN_DATE_AND_TIME_ASSIGNMENT ( #111, #65, ( #118 ) ) ;
#11 = PERSON_AND_ORGANIZATION_ROLE ( 'design_owner' ) ;
#12 = PERSON_AND_ORGANIZATION ( #47, #64 ) ;
#13 = ORIENTED_EDGE ( 'NONE', *, *, #109, .T. ) ;
#14 = ORIENTED_EDGE ( 'NONE', *, *, #154, .F. ) ;
#15 = ADVANCED_FACE ( 'NONE', ( #35 ), #43, .T. ) ;
#16 =( GEOMETRIC_REPRESENTATION_CONTEXT ( 3 ) GLOBAL_UNCERTAINTY_ASSIGNED_CONTEXT ( ( #97 ) ) GLOBAL_UNIT_ASSIGNED_CONTEXT ( ( #45, #23, #37 ) ) REPRESENTATION_CONTEXT ( 'NONE', 'WORKASPACE' ) );
#17 = COORDINATED_UNIVERSAL_TIME_OFFSET ( 5, 0, .BEHIND. ) ;
#18 = CC_DESIGN_PERSON_AND_ORGANIZATION_ASSIGNMENT ( #101, #147, ( #166 ) ) ;
#19 = CARTESIAN_POINT ( 'NONE',  ( 0.0000000000000000000, 0.0000000000000000000, 0.0000000000000000000 ) ) ;
#20 = CALENDAR_DATE ( 2017, 31, 1 ) ;
#21 = CARTESIAN_POINT ( 'NONE',  ( 0.0000000000000000000, 0.0000000000000000000, 0.0000000000000000000 ) ) ;
#22 = VERTEX_POINT ( 'NONE', #48 ) ;
#23 =( NAMED_UNIT ( * ) PLANE_ANGLE_UNIT ( ) SI_UNIT ( $, .RADIAN. ) );
#24 = APPROVAL_DATE_TIME ( #72, #74 ) ;
#25 = COORDINATED_UNIVERSAL_TIME_OFFSET ( 5, 0, .BEHIND. ) ;
#26 = EDGE_LOOP ( 'NONE', ( #2, #136 ) ) ;
#27 = MANIFOLD_SOLID_BREP ( 'Extrude1', #91 ) ;
#28 = COORDINATED_UNIVERSAL_TIME_OFFSET ( 5, 0, .BEHIND. ) ;
#29 = PERSON_AND_ORGANIZATION ( #47, #64 ) ;
#30 = AXIS2_PLACEMENT_3D ( 'NONE', #71, #87, #155 ) ;
#31 = DIRECTION ( 'NONE',  ( -0.0000000000000000000, -0.0000000000000000000, -1.000000000000000000 ) ) ;
#32 = ORIENTED_EDGE ( 'NONE', *, *, #44, .T. ) ;
#33 = CARTESIAN_POINT ( 'NONE',  ( 20.00000000000000000, 2.449293598294706500E-015, 4.000000000000000000 ) ) ;
#34 = AXIS2_PLACEMENT_3D ( 'NONE', #6, #144, #63 ) ;
#35 = FACE_OUTER_BOUND ( 'NONE', #98, .T. ) ;
#36 = APPROVAL_ROLE ( '' ) ;
#37 =( NAMED_UNIT ( * ) SI_UNIT ( $, .STERADIAN. ) SOLID_ANGLE_UNIT ( ) );
#38 = VERTEX_POINT ( 'NONE', #62 ) ;
#39 = CC_DESIGN_APPROVAL ( #132, ( #118 ) ) ;
#40 = EDGE_CURVE ( 'NONE', #38, #108, #123, .T. ) ;
#41 = CC_DESIGN_PERSON_AND_ORGANIZATION_ASSIGNMENT ( #89, #157, ( #118 ) ) ;
#42 = APPROVAL_DATE_TIME ( #79, #56 ) ;
#43 = CYLINDRICAL_SURFACE ( 'NONE', #112, 20.00000000000000000 ) ;
#44 = EDGE_CURVE ( 'NONE', #107, #22, #159, .T. ) ;
#45 =( LENGTH_UNIT ( ) NAMED_UNIT ( * ) SI_UNIT ( .MILLI., .METRE. ) );
#46 = CARTESIAN_POINT ( 'NONE',  ( 0.0000000000000000000, 0.0000000000000000000, 4.000000000000000000 ) ) ;
#47 = PERSON ( 'UNSPECIFIED', 'UNSPECIFIED', 'UNSPECIFIED', ('UNSPECIFIED'), ('UNSPECIFIED'), ('UNSPECIFIED') ) ;
#48 = CARTESIAN_POINT ( 'NONE',  ( 20.00000000000000000, 2.449293598294706500E-015, 0.0000000000000000000 ) ) ;
#49 = DIRECTION ( 'NONE',  ( -1.000000000000000000, 0.0000000000000000000, 0.0000000000000000000 ) ) ;
#50 = LOCAL_TIME ( 14, 37, 22.00000000000000000, #140 ) ;
#51 = APPLICATION_PROTOCOL_DEFINITION ( 'international standard', 'config_control_design', 1994, #170 ) ;
#52 = ORIENTED_EDGE ( 'NONE', *, *, #44, .F. ) ;
#53 = AXIS2_PLACEMENT_3D ( 'NONE', #46, #137, #151 ) ;
#54 = EDGE_CURVE ( 'NONE', #108, #22, #126, .T. ) ;
#55 = EDGE_LOOP ( 'NONE', ( #52, #160 ) ) ;
#56 = APPROVAL ( #95, 'UNSPECIFIED' ) ;
#57 = DIRECTION ( 'NONE',  ( 1.000000000000000000, 0.0000000000000000000, 0.0000000000000000000 ) ) ;
#58 = DIRECTION ( 'NONE',  ( 0.0000000000000000000, 0.0000000000000000000, 1.000000000000000000 ) ) ;
#59 = DIRECTION ( 'NONE',  ( 0.0000000000000000000, 0.0000000000000000000, 1.000000000000000000 ) ) ;
#60 = LOCAL_TIME ( 14, 37, 22.00000000000000000, #28 ) ;
#61 = CIRCLE ( 'NONE', #53, 20.00000000000000000 ) ;
#62 = CARTESIAN_POINT ( 'NONE',  ( -20.00000000000000000, 0.0000000000000000000, 4.000000000000000000 ) ) ;
#63 = DIRECTION ( 'NONE',  ( -1.000000000000000000, 0.0000000000000000000, 0.0000000000000000000 ) ) ;
#64 = ORGANIZATION ( 'UNSPECIFIED', 'UNSPECIFIED', '' ) ;
#65 = DATE_TIME_ROLE ( 'creation_date' ) ;
#66 = PERSON_AND_ORGANIZATION ( #47, #64 ) ;
#67 = PERSON_AND_ORGANIZATION ( #47, #64 ) ;
#68 = COORDINATED_UNIVERSAL_TIME_OFFSET ( 5, 0, .BEHIND. ) ;
#69 = FACE_OUTER_BOUND ( 'NONE', #55, .T. ) ;
#70 = VECTOR ( 'NONE', #103, 1000.000000000000000 ) ;
#71 = CARTESIAN_POINT ( 'NONE',  ( 0.0000000000000000000, 0.0000000000000000000, 0.0000000000000000000 ) ) ;
#72 = DATE_AND_TIME ( #149, #60 ) ;
#73 = DIRECTION ( 'NONE',  ( 1.000000000000000000, 0.0000000000000000000, 0.0000000000000000000 ) ) ;
#74 = APPROVAL ( #76, 'UNSPECIFIED' ) ;
#75 = CC_DESIGN_APPROVAL ( #56, ( #166 ) ) ;
#76 = APPROVAL_STATUS ( 'not_yet_approved' ) ;
#77 = APPLICATION_PROTOCOL_DEFINITION ( 'international standard', 'config_control_design', 1994, #130 ) ;
#78 = APPROVAL_ROLE ( '' ) ;
#79 = DATE_AND_TIME ( #86, #148 ) ;
#80 = CIRCLE ( 'NONE', #100, 20.00000000000000000 ) ;
#81 = CC_DESIGN_PERSON_AND_ORGANIZATION_ASSIGNMENT ( #67, #11, ( #5 ) ) ;
#82 = ADVANCED_FACE ( 'NONE', ( #152 ), #117, .T. ) ;
#83 = CALENDAR_DATE ( 2017, 31, 1 ) ;
#84 = ADVANCED_FACE ( 'NONE', ( #69 ), #88, .F. ) ;
#85 = LOCAL_TIME ( 14, 37, 22.00000000000000000, #68 ) ;
#86 = CALENDAR_DATE ( 2017, 31, 1 ) ;
#87 = DIRECTION ( 'NONE',  ( 0.0000000000000000000, 0.0000000000000000000, 1.000000000000000000 ) ) ;
#88 = PLANE ( 'NONE',  #146 ) ;
#89 = PERSON_AND_ORGANIZATION ( #47, #64 ) ;
#90 = DIRECTION ( 'NONE',  ( 1.000000000000000000, 0.0000000000000000000, -0.0000000000000000000 ) ) ;
#91 = CLOSED_SHELL ( 'NONE', ( #121, #15, #82, #84 ) ) ;
#92 = FACE_OUTER_BOUND ( 'NONE', #173, .T. ) ;
#93 = APPROVAL_ROLE ( '' ) ;
#94 = PERSON_AND_ORGANIZATION_ROLE ( 'design_supplier' ) ;
#95 = APPROVAL_STATUS ( 'not_yet_approved' ) ;
#96 = SECURITY_CLASSIFICATION ( '', '', #171 ) ;
#97 = UNCERTAINTY_MEASURE_WITH_UNIT (LENGTH_MEASURE( 1.000000000000000100E-005 ), #45, 'distance_accuracy_value', 'NONE');
#98 = EDGE_LOOP ( 'NONE', ( #122, #174, #104, #32 ) ) ;
#99 = SHAPE_DEFINITION_REPRESENTATION ( #110, #124 ) ;
#100 = AXIS2_PLACEMENT_3D ( 'NONE', #19, #143, #57 ) ;
#101 = PERSON_AND_ORGANIZATION ( #47, #64 ) ;
#102 = CARTESIAN_POINT ( 'NONE',  ( -20.00000000000000000, 0.0000000000000000000, 4.000000000000000000 ) ) ;
#103 = DIRECTION ( 'NONE',  ( -0.0000000000000000000, -0.0000000000000000000, -1.000000000000000000 ) ) ;
#104 = ORIENTED_EDGE ( 'NONE', *, *, #3, .T. ) ;
#105 = CC_DESIGN_DATE_AND_TIME_ASSIGNMENT ( #172, #153, ( #96 ) ) ;
#106 = PERSON_AND_ORGANIZATION ( #47, #64 ) ;
#107 = VERTEX_POINT ( 'NONE', #114 ) ;
#108 = VERTEX_POINT ( 'NONE', #33 ) ;
#109 = EDGE_CURVE ( 'NONE', #22, #107, #80, .T. ) ;
#110 = PRODUCT_DEFINITION_SHAPE ( 'NONE', 'NONE',  #118 ) ;
#111 = DATE_AND_TIME ( #167, #50 ) ;
#112 = AXIS2_PLACEMENT_3D ( 'NONE', #115, #31, #49 ) ;
#113 = CARTESIAN_POINT ( 'NONE',  ( 0.0000000000000000000, 0.0000000000000000000, 4.000000000000000000 ) ) ;
#114 = CARTESIAN_POINT ( 'NONE',  ( -20.00000000000000000, 0.0000000000000000000, 0.0000000000000000000 ) ) ;
#115 = CARTESIAN_POINT ( 'NONE',  ( 0.0000000000000000000, 0.0000000000000000000, 4.000000000000000000 ) ) ;
#116 = ORIENTED_EDGE ( 'NONE', *, *, #3, .F. ) ;
#117 = PLANE ( 'NONE',  #9 ) ;
#118 = PRODUCT_DEFINITION ( 'UNKNOWN', '', #166, #158 ) ;
#119 = MECHANICAL_CONTEXT ( 'NONE', #130, 'mechanical' ) ;
#120 = AXIS2_PLACEMENT_3D ( 'NONE', #113, #165, #139 ) ;
#121 = ADVANCED_FACE ( 'NONE', ( #92 ), #1, .T. ) ;
#122 = ORIENTED_EDGE ( 'NONE', *, *, #54, .F. ) ;
#123 = CIRCLE ( 'NONE', #120, 20.00000000000000000 ) ;
#124 = ADVANCED_BREP_SHAPE_REPRESENTATION ( 'Web Model 66202', ( #27, #30 ), #16 ) ;
#125 = DIRECTION ( 'NONE',  ( 1.000000000000000000, 0.0000000000000000000, -0.0000000000000000000 ) ) ;
#126 = LINE ( 'NONE', #142, #162 ) ;
#127 = CC_DESIGN_PERSON_AND_ORGANIZATION_ASSIGNMENT ( #12, #94, ( #166 ) ) ;
#128 = DIRECTION ( 'NONE',  ( 0.0000000000000000000, 0.0000000000000000000, 1.000000000000000000 ) ) ;
#129 = APPROVAL_STATUS ( 'not_yet_approved' ) ;
#130 = APPLICATION_CONTEXT ( 'configuration controlled 3d designs of mechanical parts and assemblies' ) ;
#131 = APPROVAL_DATE_TIME ( #133, #132 ) ;
#132 = APPROVAL ( #129, 'UNSPECIFIED' ) ;
#133 = DATE_AND_TIME ( #20, #161 ) ;
#134 = ORIENTED_EDGE ( 'NONE', *, *, #54, .T. ) ;
#135 = CC_DESIGN_SECURITY_CLASSIFICATION ( #96, ( #166 ) ) ;
#136 = ORIENTED_EDGE ( 'NONE', *, *, #154, .T. ) ;
#137 = DIRECTION ( 'NONE',  ( 0.0000000000000000000, 0.0000000000000000000, 1.000000000000000000 ) ) ;
#138 = PRODUCT_RELATED_PRODUCT_CATEGORY ( 'detail', '', ( #5 ) ) ;
#139 = DIRECTION ( 'NONE',  ( 1.000000000000000000, 0.0000000000000000000, 0.0000000000000000000 ) ) ;
#140 = COORDINATED_UNIVERSAL_TIME_OFFSET ( 5, 0, .BEHIND. ) ;
#141 = LINE ( 'NONE', #102, #70 ) ;
#142 = CARTESIAN_POINT ( 'NONE',  ( 20.00000000000000000, 2.449293598294706500E-015, 4.000000000000000000 ) ) ;
#143 = DIRECTION ( 'NONE',  ( 0.0000000000000000000, 0.0000000000000000000, 1.000000000000000000 ) ) ;
#144 = DIRECTION ( 'NONE',  ( -0.0000000000000000000, -0.0000000000000000000, -1.000000000000000000 ) ) ;
#145 = PERSON_AND_ORGANIZATION ( #47, #64 ) ;
#146 = AXIS2_PLACEMENT_3D ( 'NONE', #21, #128, #125 ) ;
#147 = PERSON_AND_ORGANIZATION_ROLE ( 'creator' ) ;
#148 = LOCAL_TIME ( 14, 37, 22.00000000000000000, #17 ) ;
#149 = CALENDAR_DATE ( 2017, 31, 1 ) ;
#150 = APPROVAL_PERSON_ORGANIZATION ( #106, #56, #78 ) ;
#151 = DIRECTION ( 'NONE',  ( 1.000000000000000000, 0.0000000000000000000, 0.0000000000000000000 ) ) ;
#152 = FACE_OUTER_BOUND ( 'NONE', #26, .T. ) ;
#153 = DATE_TIME_ROLE ( 'classification_date' ) ;
#154 = EDGE_CURVE ( 'NONE', #108, #38, #61, .T. ) ;
#155 = DIRECTION ( 'NONE',  ( 1.000000000000000000, 0.0000000000000000000, 0.0000000000000000000 ) ) ;
#156 = CC_DESIGN_PERSON_AND_ORGANIZATION_ASSIGNMENT ( #145, #8, ( #96 ) ) ;
#157 = PERSON_AND_ORGANIZATION_ROLE ( 'creator' ) ;
#158 = DESIGN_CONTEXT ( 'detailed design', #170, 'design' ) ;
#159 = CIRCLE ( 'NONE', #175, 20.00000000000000000 ) ;
#160 = ORIENTED_EDGE ( 'NONE', *, *, #109, .F. ) ;
#161 = LOCAL_TIME ( 14, 37, 22.00000000000000000, #25 ) ;
#162 = VECTOR ( 'NONE', #169, 1000.000000000000000 ) ;
#163 = CARTESIAN_POINT ( 'NONE',  ( 0.0000000000000000000, 0.0000000000000000000, 0.0000000000000000000 ) ) ;
#164 = CC_DESIGN_APPROVAL ( #74, ( #96 ) ) ;
#165 = DIRECTION ( 'NONE',  ( 0.0000000000000000000, 0.0000000000000000000, 1.000000000000000000 ) ) ;
#166 = PRODUCT_DEFINITION_FORMATION_WITH_SPECIFIED_SOURCE ( 'ANY', '', #5, .NOT_KNOWN. ) ;
#167 = CALENDAR_DATE ( 2017, 31, 1 ) ;
#168 = APPROVAL_PERSON_ORGANIZATION ( #29, #132, #36 ) ;
#169 = DIRECTION ( 'NONE',  ( -0.0000000000000000000, -0.0000000000000000000, -1.000000000000000000 ) ) ;
#170 = APPLICATION_CONTEXT ( 'configuration controlled 3d designs of mechanical parts and assemblies' ) ;
#171 = SECURITY_CLASSIFICATION_LEVEL ( 'unclassified' ) ;
#172 = DATE_AND_TIME ( #83, #85 ) ;
#173 = EDGE_LOOP ( 'NONE', ( #14, #134, #13, #116 ) ) ;
#174 = ORIENTED_EDGE ( 'NONE', *, *, #40, .F. ) ;
#175 = AXIS2_PLACEMENT_3D ( 'NONE', #163, #59, #73 ) ;
ENDSEC;
END-ISO-10303-21;
