ISO-10303-21;
HEADER;
FILE_DESCRIPTION (( 'STEP AP203' ),
    '1' );
FILE_NAME ('Web Model 68528_47943.step',
    '2017-03-22T18:23:07',
    ( '' ),
    ( '' ),
    'SwSTEP 2.0',
    'SolidWorks 2016',
    '' );
FILE_SCHEMA (( 'CONFIG_CONTROL_DESIGN' ));
ENDSEC;

DATA;
#1 = ADVANCED_FACE ( 'NONE', ( #6 ), #146, .T. ) ;
#2 = VERTEX_POINT ( 'NONE', #173 ) ;
#3 = CLOSED_SHELL ( 'NONE', ( #26, #70, #1, #164 ) ) ;
#4 = PRODUCT_RELATED_PRODUCT_CATEGORY ( 'detail', '', ( #139 ) ) ;
#5 = CALENDAR_DATE ( 2017, 22, 3 ) ;
#6 = FACE_OUTER_BOUND ( 'NONE', #115, .T. ) ;
#7 = EDGE_CURVE ( 'NONE', #2, #94, #71, .T. ) ;
#8 = AXIS2_PLACEMENT_3D ( 'NONE', #110, #41, #125 ) ;
#9 = CARTESIAN_POINT ( 'NONE',  ( 3.061616997868383000E-015, 3.000000000000000000, 25.00000000000000000 ) ) ;
#10 = ORIENTED_EDGE ( 'NONE', *, *, #134, .T. ) ;
#11 = CARTESIAN_POINT ( 'NONE',  ( 0.0000000000000000000, 0.0000000000000000000, 0.0000000000000000000 ) ) ;
#12 = CARTESIAN_POINT ( 'NONE',  ( 3.061616997868383000E-015, 3.000000000000000000, 25.00000000000000000 ) ) ;
#13 = DIRECTION ( 'NONE',  ( -0.0000000000000000000, -1.000000000000000000, -0.0000000000000000000 ) ) ;
#14 = PERSON_AND_ORGANIZATION ( #126, #36 ) ;
#15 = CARTESIAN_POINT ( 'NONE',  ( 0.0000000000000000000, 3.000000000000000000, 0.0000000000000000000 ) ) ;
#16 = COORDINATED_UNIVERSAL_TIME_OFFSET ( 5, 0, .BEHIND. ) ;
#17 = APPROVAL_STATUS ( 'not_yet_approved' ) ;
#18 = CC_DESIGN_SECURITY_CLASSIFICATION ( #101, ( #96 ) ) ;
#19 = DATE_TIME_ROLE ( 'creation_date' ) ;
#20 = AXIS2_PLACEMENT_3D ( 'NONE', #57, #144, #67 ) ;
#21 = DIRECTION ( 'NONE',  ( 0.0000000000000000000, 1.000000000000000000, 0.0000000000000000000 ) ) ;
#22 = LOCAL_TIME ( 14, 23, 7.000000000000000000, #59 ) ;
#23 = CARTESIAN_POINT ( 'NONE',  ( 0.0000000000000000000, 3.000000000000000000, 0.0000000000000000000 ) ) ;
#24 = ADVANCED_BREP_SHAPE_REPRESENTATION ( 'Web Model 68528_47943', ( #108, #151 ), #97 ) ;
#25 = DIRECTION ( 'NONE',  ( -0.0000000000000000000, -1.000000000000000000, -0.0000000000000000000 ) ) ;
#26 = ADVANCED_FACE ( 'NONE', ( #136 ), #123, .T. ) ;
#27 = LINE ( 'NONE', #99, #166 ) ;
#28 = CC_DESIGN_PERSON_AND_ORGANIZATION_ASSIGNMENT ( #147, #102, ( #96 ) ) ;
#29 = ORIENTED_EDGE ( 'NONE', *, *, #152, .F. ) ;
#30 = EDGE_CURVE ( 'NONE', #122, #119, #34, .T. ) ;
#31 = AXIS2_PLACEMENT_3D ( 'NONE', #129, #25, #68 ) ;
#32 = APPROVAL_ROLE ( '' ) ;
#33 = ORIENTED_EDGE ( 'NONE', *, *, #152, .T. ) ;
#34 = CIRCLE ( 'NONE', #8, 25.00000000000000000 ) ;
#35 = EDGE_LOOP ( 'NONE', ( #162, #52, #33, #10 ) ) ;
#36 = ORGANIZATION ( 'UNSPECIFIED', 'UNSPECIFIED', '' ) ;
#37 = CC_DESIGN_APPROVAL ( #170, ( #96 ) ) ;
#38 = ORIENTED_EDGE ( 'NONE', *, *, #7, .F. ) ;
#39 = ORIENTED_EDGE ( 'NONE', *, *, #40, .T. ) ;
#40 = EDGE_CURVE ( 'NONE', #119, #2, #75, .T. ) ;
#41 = DIRECTION ( 'NONE',  ( 0.0000000000000000000, 1.000000000000000000, 0.0000000000000000000 ) ) ;
#42 = DIRECTION ( 'NONE',  ( 0.0000000000000000000, 0.0000000000000000000, 1.000000000000000000 ) ) ;
#43 = DIRECTION ( 'NONE',  ( 0.0000000000000000000, 1.000000000000000000, 0.0000000000000000000 ) ) ;
#44 = COORDINATED_UNIVERSAL_TIME_OFFSET ( 5, 0, .BEHIND. ) ;
#45 = PERSON_AND_ORGANIZATION_ROLE ( 'creator' ) ;
#46 = ORIENTED_EDGE ( 'NONE', *, *, #161, .T. ) ;
#47 = LOCAL_TIME ( 14, 23, 7.000000000000000000, #74 ) ;
#48 = APPROVAL_ROLE ( '' ) ;
#49 = CC_DESIGN_PERSON_AND_ORGANIZATION_ASSIGNMENT ( #107, #117, ( #101 ) ) ;
#50 = CARTESIAN_POINT ( 'NONE',  ( 0.0000000000000000000, 0.0000000000000000000, 0.0000000000000000000 ) ) ;
#51 = APPROVAL_DATE_TIME ( #77, #170 ) ;
#52 = ORIENTED_EDGE ( 'NONE', *, *, #30, .F. ) ;
#53 = DIRECTION ( 'NONE',  ( -0.0000000000000000000, -1.000000000000000000, -0.0000000000000000000 ) ) ;
#54 = APPROVAL_PERSON_ORGANIZATION ( #80, #170, #104 ) ;
#55 = CC_DESIGN_PERSON_AND_ORGANIZATION_ASSIGNMENT ( #14, #45, ( #96 ) ) ;
#56 = AXIS2_PLACEMENT_3D ( 'NONE', #90, #78, #145 ) ;
#57 = CARTESIAN_POINT ( 'NONE',  ( 0.0000000000000000000, 0.0000000000000000000, 0.0000000000000000000 ) ) ;
#58 = DATE_TIME_ROLE ( 'classification_date' ) ;
#59 = COORDINATED_UNIVERSAL_TIME_OFFSET ( 5, 0, .BEHIND. ) ;
#60 = PERSON_AND_ORGANIZATION ( #126, #36 ) ;
#61 = CC_DESIGN_PERSON_AND_ORGANIZATION_ASSIGNMENT ( #91, #137, ( #139 ) ) ;
#62 = FACE_OUTER_BOUND ( 'NONE', #109, .T. ) ;
#63 =( NAMED_UNIT ( * ) PLANE_ANGLE_UNIT ( ) SI_UNIT ( $, .RADIAN. ) );
#64 = CALENDAR_DATE ( 2017, 22, 3 ) ;
#65 = APPLICATION_CONTEXT ( 'configuration controlled 3d designs of mechanical parts and assemblies' ) ;
#66 = APPLICATION_PROTOCOL_DEFINITION ( 'international standard', 'config_control_design', 1994, #73 ) ;
#67 = DIRECTION ( 'NONE',  ( 0.0000000000000000000, 0.0000000000000000000, 1.000000000000000000 ) ) ;
#68 = DIRECTION ( 'NONE',  ( 0.0000000000000000000, 0.0000000000000000000, -1.000000000000000000 ) ) ;
#69 = APPROVAL_DATE_TIME ( #100, #169 ) ;
#70 = ADVANCED_FACE ( 'NONE', ( #93 ), #81, .T. ) ;
#71 = CIRCLE ( 'NONE', #20, 25.00000000000000000 ) ;
#72 = APPROVAL_PERSON_ORGANIZATION ( #105, #169, #32 ) ;
#73 = APPLICATION_CONTEXT ( 'configuration controlled 3d designs of mechanical parts and assemblies' ) ;
#74 = COORDINATED_UNIVERSAL_TIME_OFFSET ( 5, 0, .BEHIND. ) ;
#75 = LINE ( 'NONE', #12, #175 ) ;
#76 = CC_DESIGN_DATE_AND_TIME_ASSIGNMENT ( #142, #58, ( #101 ) ) ;
#77 = DATE_AND_TIME ( #113, #150 ) ;
#78 = DIRECTION ( 'NONE',  ( 0.0000000000000000000, 1.000000000000000000, 0.0000000000000000000 ) ) ;
#79 = SHAPE_DEFINITION_REPRESENTATION ( #95, #24 ) ;
#80 = PERSON_AND_ORGANIZATION ( #126, #36 ) ;
#81 = CYLINDRICAL_SURFACE ( 'NONE', #31, 25.00000000000000000 ) ;
#82 = CC_DESIGN_APPROVAL ( #169, ( #101 ) ) ;
#83 = MECHANICAL_CONTEXT ( 'NONE', #73, 'mechanical' ) ;
#84 = DIRECTION ( 'NONE',  ( 0.0000000000000000000, 0.0000000000000000000, 1.000000000000000000 ) ) ;
#85 = PERSON_AND_ORGANIZATION ( #126, #36 ) ;
#86 = PRODUCT_DEFINITION ( 'UNKNOWN', '', #96, #149 ) ;
#87 = COORDINATED_UNIVERSAL_TIME_OFFSET ( 5, 0, .BEHIND. ) ;
#88 = APPROVAL_STATUS ( 'not_yet_approved' ) ;
#89 = ORIENTED_EDGE ( 'NONE', *, *, #161, .F. ) ;
#90 = CARTESIAN_POINT ( 'NONE',  ( 0.0000000000000000000, 3.000000000000000000, 0.0000000000000000000 ) ) ;
#91 = PERSON_AND_ORGANIZATION ( #126, #36 ) ;
#92 =( LENGTH_UNIT ( ) NAMED_UNIT ( * ) SI_UNIT ( .MILLI., .METRE. ) );
#93 = FACE_OUTER_BOUND ( 'NONE', #35, .T. ) ;
#94 = VERTEX_POINT ( 'NONE', #111 ) ;
#95 = PRODUCT_DEFINITION_SHAPE ( 'NONE', 'NONE',  #86 ) ;
#96 = PRODUCT_DEFINITION_FORMATION_WITH_SPECIFIED_SOURCE ( 'ANY', '', #139, .NOT_KNOWN. ) ;
#97 =( GEOMETRIC_REPRESENTATION_CONTEXT ( 3 ) GLOBAL_UNCERTAINTY_ASSIGNED_CONTEXT ( ( #141 ) ) GLOBAL_UNIT_ASSIGNED_CONTEXT ( ( #92, #63, #140 ) ) REPRESENTATION_CONTEXT ( 'NONE', 'WORKASPACE' ) );
#98 = CARTESIAN_POINT ( 'NONE',  ( 0.0000000000000000000, 3.000000000000000000, -25.00000000000000000 ) ) ;
#99 = CARTESIAN_POINT ( 'NONE',  ( 0.0000000000000000000, 3.000000000000000000, -25.00000000000000000 ) ) ;
#100 = DATE_AND_TIME ( #135, #174 ) ;
#101 = SECURITY_CLASSIFICATION ( '', '', #159 ) ;
#102 = PERSON_AND_ORGANIZATION_ROLE ( 'design_supplier' ) ;
#103 = CC_DESIGN_DATE_AND_TIME_ASSIGNMENT ( #116, #19, ( #86 ) ) ;
#104 = APPROVAL_ROLE ( '' ) ;
#105 = PERSON_AND_ORGANIZATION ( #126, #36 ) ;
#106 = AXIS2_PLACEMENT_3D ( 'NONE', #112, #168, #84 ) ;
#107 = PERSON_AND_ORGANIZATION ( #126, #36 ) ;
#108 = MANIFOLD_SOLID_BREP ( 'Extrude1', #3 ) ;
#109 = EDGE_LOOP ( 'NONE', ( #165, #38 ) ) ;
#110 = CARTESIAN_POINT ( 'NONE',  ( 0.0000000000000000000, 3.000000000000000000, 0.0000000000000000000 ) ) ;
#111 = CARTESIAN_POINT ( 'NONE',  ( 0.0000000000000000000, 0.0000000000000000000, -25.00000000000000000 ) ) ;
#112 = CARTESIAN_POINT ( 'NONE',  ( 0.0000000000000000000, 0.0000000000000000000, 0.0000000000000000000 ) ) ;
#113 = CALENDAR_DATE ( 2017, 22, 3 ) ;
#114 = ORIENTED_EDGE ( 'NONE', *, *, #30, .T. ) ;
#115 = EDGE_LOOP ( 'NONE', ( #114, #46 ) ) ;
#116 = DATE_AND_TIME ( #155, #22 ) ;
#117 = PERSON_AND_ORGANIZATION_ROLE ( 'classification_officer' ) ;
#118 = APPROVAL_STATUS ( 'not_yet_approved' ) ;
#119 = VERTEX_POINT ( 'NONE', #9 ) ;
#120 = DIRECTION ( 'NONE',  ( 0.0000000000000000000, -0.0000000000000000000, 1.000000000000000000 ) ) ;
#121 = APPROVAL_DATE_TIME ( #158, #160 ) ;
#122 = VERTEX_POINT ( 'NONE', #98 ) ;
#123 = CYLINDRICAL_SURFACE ( 'NONE', #143, 25.00000000000000000 ) ;
#124 = CC_DESIGN_PERSON_AND_ORGANIZATION_ASSIGNMENT ( #85, #133, ( #86 ) ) ;
#125 = DIRECTION ( 'NONE',  ( 0.0000000000000000000, 0.0000000000000000000, 1.000000000000000000 ) ) ;
#126 = PERSON ( 'UNSPECIFIED', 'UNSPECIFIED', 'UNSPECIFIED', ('UNSPECIFIED'), ('UNSPECIFIED'), ('UNSPECIFIED') ) ;
#127 = DIRECTION ( 'NONE',  ( 0.0000000000000000000, 0.0000000000000000000, 1.000000000000000000 ) ) ;
#128 = CIRCLE ( 'NONE', #163, 25.00000000000000000 ) ;
#129 = CARTESIAN_POINT ( 'NONE',  ( 0.0000000000000000000, 3.000000000000000000, 0.0000000000000000000 ) ) ;
#130 = DIRECTION ( 'NONE',  ( 0.0000000000000000000, 0.0000000000000000000, -1.000000000000000000 ) ) ;
#131 = EDGE_LOOP ( 'NONE', ( #89, #39, #157, #29 ) ) ;
#132 = CC_DESIGN_APPROVAL ( #160, ( #86 ) ) ;
#133 = PERSON_AND_ORGANIZATION_ROLE ( 'creator' ) ;
#134 = EDGE_CURVE ( 'NONE', #94, #2, #148, .T. ) ;
#135 = CALENDAR_DATE ( 2017, 22, 3 ) ;
#136 = FACE_OUTER_BOUND ( 'NONE', #131, .T. ) ;
#137 = PERSON_AND_ORGANIZATION_ROLE ( 'design_owner' ) ;
#138 = DIRECTION ( 'NONE',  ( -0.0000000000000000000, -1.000000000000000000, -0.0000000000000000000 ) ) ;
#139 = PRODUCT ( 'Web Model 68528_47943', 'Web Model 68528_47943', '', ( #83 ) ) ;
#140 =( NAMED_UNIT ( * ) SI_UNIT ( $, .STERADIAN. ) SOLID_ANGLE_UNIT ( ) );
#141 = UNCERTAINTY_MEASURE_WITH_UNIT (LENGTH_MEASURE( 1.000000000000000100E-005 ), #92, 'distance_accuracy_value', 'NONE');
#142 = DATE_AND_TIME ( #5, #47 ) ;
#143 = AXIS2_PLACEMENT_3D ( 'NONE', #23, #138, #130 ) ;
#144 = DIRECTION ( 'NONE',  ( 0.0000000000000000000, 1.000000000000000000, 0.0000000000000000000 ) ) ;
#145 = DIRECTION ( 'NONE',  ( 0.0000000000000000000, -0.0000000000000000000, 1.000000000000000000 ) ) ;
#146 = PLANE ( 'NONE',  #56 ) ;
#147 = PERSON_AND_ORGANIZATION ( #126, #36 ) ;
#148 = CIRCLE ( 'NONE', #106, 25.00000000000000000 ) ;
#149 = DESIGN_CONTEXT ( 'detailed design', #65, 'design' ) ;
#150 = LOCAL_TIME ( 14, 23, 7.000000000000000000, #16 ) ;
#151 = AXIS2_PLACEMENT_3D ( 'NONE', #50, #42, #167 ) ;
#152 = EDGE_CURVE ( 'NONE', #122, #94, #27, .T. ) ;
#153 = APPLICATION_PROTOCOL_DEFINITION ( 'international standard', 'config_control_design', 1994, #65 ) ;
#154 = PLANE ( 'NONE',  #171 ) ;
#155 = CALENDAR_DATE ( 2017, 22, 3 ) ;
#156 = LOCAL_TIME ( 14, 23, 7.000000000000000000, #87 ) ;
#157 = ORIENTED_EDGE ( 'NONE', *, *, #7, .T. ) ;
#158 = DATE_AND_TIME ( #64, #156 ) ;
#159 = SECURITY_CLASSIFICATION_LEVEL ( 'unclassified' ) ;
#160 = APPROVAL ( #118, 'UNSPECIFIED' ) ;
#161 = EDGE_CURVE ( 'NONE', #119, #122, #128, .T. ) ;
#162 = ORIENTED_EDGE ( 'NONE', *, *, #40, .F. ) ;
#163 = AXIS2_PLACEMENT_3D ( 'NONE', #15, #43, #127 ) ;
#164 = ADVANCED_FACE ( 'NONE', ( #62 ), #154, .F. ) ;
#165 = ORIENTED_EDGE ( 'NONE', *, *, #134, .F. ) ;
#166 = VECTOR ( 'NONE', #13, 1000.000000000000000 ) ;
#167 = DIRECTION ( 'NONE',  ( 1.000000000000000000, 0.0000000000000000000, 0.0000000000000000000 ) ) ;
#168 = DIRECTION ( 'NONE',  ( 0.0000000000000000000, 1.000000000000000000, 0.0000000000000000000 ) ) ;
#169 = APPROVAL ( #88, 'UNSPECIFIED' ) ;
#170 = APPROVAL ( #17, 'UNSPECIFIED' ) ;
#171 = AXIS2_PLACEMENT_3D ( 'NONE', #11, #21, #120 ) ;
#172 = APPROVAL_PERSON_ORGANIZATION ( #60, #160, #48 ) ;
#173 = CARTESIAN_POINT ( 'NONE',  ( 3.061616997868383000E-015, 0.0000000000000000000, 25.00000000000000000 ) ) ;
#174 = LOCAL_TIME ( 14, 23, 7.000000000000000000, #44 ) ;
#175 = VECTOR ( 'NONE', #53, 1000.000000000000000 ) ;
ENDSEC;
END-ISO-10303-21;
