ISO-10303-21;
HEADER;
FILE_DESCRIPTION (( 'STEP AP203' ),
    '1' );
FILE_NAME ('4925-E0W.STEP',
    '2015-07-13T15:20:35',
    ( 'admin' ),
    ( '' ),
    'SwSTEP 2.0',
    'SolidWorks 2014',
    '' );
FILE_SCHEMA (( 'CONFIG_CONTROL_DESIGN' ));
ENDSEC;

DATA;
#1 = CARTESIAN_POINT ( 'NONE',  ( 0.0000000000000000000, 12.47293809500225200, -0.1929354392768336500 ) ) ;
#2 = CARTESIAN_POINT ( 'NONE',  ( 0.0000000000000000000, 0.0000000000000000000, -0.1929354392768319000 ) ) ;
#3 = APPLICATION_CONTEXT ( 'configuration controlled 3d designs of mechanical parts and assemblies' ) ;
#4 = CONICAL_SURFACE ( 'NONE', #294, 12.70000000000000300, 0.8552523756335445000 ) ;
#5 = CARTESIAN_POINT ( 'NONE',  ( 12.70000000000000300, 0.0000000000000000000, -2.211554670982898600 ) ) ;
#6 = PERSON_AND_ORGANIZATION_ROLE ( 'creator' ) ;
#7 = AXIS2_PLACEMENT_3D ( 'NONE', #319, #142, #352 ) ;
#8 = DIRECTION ( 'NONE',  ( -0.5432874840474247700, 0.0000000000000000000, -0.8395467287038995700 ) ) ;
#9 = DESIGN_CONTEXT ( 'detailed design', #252, 'design' ) ;
#10 = CARTESIAN_POINT ( 'NONE',  ( 0.0000000000000000000, 0.0000000000000000000, -28.57296037369578900 ) ) ;
#11 = ORIENTED_EDGE ( 'NONE', *, *, #112, .F. ) ;
#12 = DIRECTION ( 'NONE',  ( -1.000000000000000000, 0.0000000000000000000, 0.0000000000000000000 ) ) ;
#13 = CYLINDRICAL_SURFACE ( 'NONE', #205, 12.70000000000000300 ) ;
#14 = CC_DESIGN_PERSON_AND_ORGANIZATION_ASSIGNMENT ( #208, #194, ( #302 ) ) ;
#15 = ORIENTED_EDGE ( 'NONE', *, *, #166, .F. ) ;
#16 = PERSON_AND_ORGANIZATION ( #330, #304 ) ;
#17 = CLOSED_SHELL ( 'NONE', ( #60, #268, #90, #49, #277, #125, #126, #300, #212, #242 ) ) ;
#18 = ORIENTED_EDGE ( 'NONE', *, *, #75, .F. ) ;
#19 = EDGE_CURVE ( 'NONE', #47, #152, #309, .T. ) ;
#20 = AXIS2_PLACEMENT_3D ( 'NONE', #173, #287, #141 ) ;
#21 = VECTOR ( 'NONE', #8, 1000.000000000000000 ) ;
#22 = ORIENTED_EDGE ( 'NONE', *, *, #99, .T. ) ;
#23 = ORIENTED_EDGE ( 'NONE', *, *, #41, .T. ) ;
#24 = DIRECTION ( 'NONE',  ( -1.000000000000000000, 0.0000000000000000000, 0.0000000000000000000 ) ) ;
#25 = DIRECTION ( 'NONE',  ( 0.5432874840474247700, 6.653352783554975100E-017, -0.8395467287038995700 ) ) ;
#26 = CARTESIAN_POINT ( 'NONE',  ( 0.0000000000000000000, 0.0000000000000000000, 0.0000000000000000000 ) ) ;
#27 = CIRCLE ( 'NONE', #267, 12.47293809500225600 ) ;
#28 = VERTEX_POINT ( 'NONE', #138 ) ;
#29 = DIRECTION ( 'NONE',  ( 1.000000000000000000, 0.0000000000000000000, 0.0000000000000000000 ) ) ;
#30 = CARTESIAN_POINT ( 'NONE',  ( -12.47293809500225100, 0.0000000000000000000, -0.1929354392768319000 ) ) ;
#31 = SECURITY_CLASSIFICATION_LEVEL ( 'unclassified' ) ;
#32 = DIRECTION ( 'NONE',  ( 1.000000000000000000, 0.0000000000000000000, 0.0000000000000000000 ) ) ;
#33 = ORIENTED_EDGE ( 'NONE', *, *, #148, .F. ) ;
#34 = ORIENTED_EDGE ( 'NONE', *, *, #166, .T. ) ;
#35 = DIRECTION ( 'NONE',  ( -0.0000000000000000000, -0.0000000000000000000, 1.000000000000000000 ) ) ;
#36 = EDGE_CURVE ( 'NONE', #341, #47, #241, .T. ) ;
#37 = CARTESIAN_POINT ( 'NONE',  ( -12.70000000000000300, 1.555301434917138800E-015, -0.5438161150729605700 ) ) ;
#38 = CONICAL_SURFACE ( 'NONE', #234, 12.47293809500225100, 0.5743479550940565600 ) ;
#39 = EDGE_LOOP ( 'NONE', ( #249, #23, #48, #15, #339 ) ) ;
#40 = CALENDAR_DATE ( 2015, 13, 7 ) ;
#41 = EDGE_CURVE ( 'NONE', #152, #297, #113, .T. ) ;
#42 = AXIS2_PLACEMENT_3D ( 'NONE', #353, #176, #12 ) ;
#43 = CIRCLE ( 'NONE', #209, 12.47293809500225600 ) ;
#44 = EDGE_LOOP ( 'NONE', ( #358, #310, #222, #366, #324 ) ) ;
#45 = EDGE_CURVE ( 'NONE', #72, #297, #299, .T. ) ;
#46 = FACE_OUTER_BOUND ( 'NONE', #81, .T. ) ;
#47 = VERTEX_POINT ( 'NONE', #91 ) ;
#48 = ORIENTED_EDGE ( 'NONE', *, *, #45, .F. ) ;
#49 = ADVANCED_FACE ( 'NONE', ( #181 ), #13, .T. ) ;
#50 = EDGE_CURVE ( 'NONE', #162, #341, #82, .T. ) ;
#51 = CIRCLE ( 'NONE', #7, 12.47293809500225600 ) ;
#52 = DIRECTION ( 'NONE',  ( 0.7547365056643509100, 0.0000000000000000000, 0.6560280535293938600 ) ) ;
#53 = EDGE_LOOP ( 'NONE', ( #177, #206, #204, #73 ) ) ;
#54 = CARTESIAN_POINT ( 'NONE',  ( 0.0000000000000000000, 0.0000000000000000000, -2.427039626304208700 ) ) ;
#55 = PERSON_AND_ORGANIZATION_ROLE ( 'design_owner' ) ;
#56 = DIRECTION ( 'NONE',  ( -1.000000000000000000, 0.0000000000000000000, 0.0000000000000000000 ) ) ;
#57 = DATE_TIME_ROLE ( 'classification_date' ) ;
#58 = CONICAL_SURFACE ( 'NONE', #20, 12.70000000000000300, 0.8552523756335445000 ) ;
#59 = EDGE_CURVE ( 'NONE', #162, #243, #262, .T. ) ;
#60 = ADVANCED_FACE ( 'NONE', ( #74 ), #38, .T. ) ;
#61 = FACE_OUTER_BOUND ( 'NONE', #53, .T. ) ;
#62 = AXIS2_PLACEMENT_3D ( 'NONE', #10, #197, #233 ) ;
#63 = DIRECTION ( 'NONE',  ( -1.000000000000000000, -0.0000000000000000000, -0.0000000000000000000 ) ) ;
#64 = DIRECTION ( 'NONE',  ( 0.0000000000000000000, 0.0000000000000000000, -1.000000000000000000 ) ) ;
#65 = CARTESIAN_POINT ( 'NONE',  ( 0.0000000000000000000, 0.0000000000000000000, -28.57296037369578900 ) ) ;
#66 = EDGE_CURVE ( 'NONE', #297, #72, #328, .T. ) ;
#67 = CARTESIAN_POINT ( 'NONE',  ( 0.0000000000000000000, 0.0000000000000000000, -92.77296037369579600 ) ) ;
#68 = LINE ( 'NONE', #106, #171 ) ;
#69 = PERSON_AND_ORGANIZATION ( #330, #304 ) ;
#70 = LOCAL_TIME ( 11, 20, 35.00000000000000000, #293 ) ;
#71 = EDGE_CURVE ( 'NONE', #334, #28, #27, .T. ) ;
#72 = VERTEX_POINT ( 'NONE', #5 ) ;
#73 = ORIENTED_EDGE ( 'NONE', *, *, #75, .T. ) ;
#74 = FACE_OUTER_BOUND ( 'NONE', #44, .T. ) ;
#75 = EDGE_CURVE ( 'NONE', #47, #243, #133, .T. ) ;
#76 =( GEOMETRIC_REPRESENTATION_CONTEXT ( 3 ) GLOBAL_UNCERTAINTY_ASSIGNED_CONTEXT ( ( #346 ) ) GLOBAL_UNIT_ASSIGNED_CONTEXT ( ( #250, #110, #308 ) ) REPRESENTATION_CONTEXT ( 'NONE', 'WORKASPACE' ) );
#77 = PRODUCT ( '4925-E0W', '4925-E0W', '', ( #220 ) ) ;
#78 = CARTESIAN_POINT ( 'NONE',  ( 0.0000000000000000000, 0.0000000000000000000, -0.5438161150729605700 ) ) ;
#79 = DATE_AND_TIME ( #325, #199 ) ;
#80 = EDGE_CURVE ( 'NONE', #28, #280, #248, .T. ) ;
#81 = EDGE_LOOP ( 'NONE', ( #150, #291, #329, #145 ) ) ;
#82 = CIRCLE ( 'NONE', #188, 12.45209236658787900 ) ;
#83 = ORIENTED_EDGE ( 'NONE', *, *, #202, .F. ) ;
#84 = DIRECTION ( 'NONE',  ( -1.000000000000000000, 0.0000000000000000000, 0.0000000000000000000 ) ) ;
#85 = APPLICATION_PROTOCOL_DEFINITION ( 'international standard', 'config_control_design', 1994, #252 ) ;
#86 = DIRECTION ( 'NONE',  ( -0.0000000000000000000, -0.0000000000000000000, 1.000000000000000000 ) ) ;
#87 = APPROVAL_ROLE ( '' ) ;
#88 = PRODUCT_DEFINITION_SHAPE ( 'NONE', 'NONE',  #203 ) ;
#89 = DIRECTION ( 'NONE',  ( -0.7547365056643509100, 9.242856458615054500E-017, 0.6560280535293938600 ) ) ;
#90 = ADVANCED_FACE ( 'NONE', ( #364 ), #303, .F. ) ;
#91 = CARTESIAN_POINT ( 'NONE',  ( 0.0000000000000000000, -12.45209236658794100, -2.427039626304208700 ) ) ;
#92 = DIRECTION ( 'NONE',  ( 0.0000000000000000000, 0.0000000000000000000, -1.000000000000000000 ) ) ;
#93 = ORIENTED_EDGE ( 'NONE', *, *, #45, .T. ) ;
#94 = PERSON_AND_ORGANIZATION ( #330, #304 ) ;
#95 = PERSON_AND_ORGANIZATION ( #330, #304 ) ;
#96 = VERTEX_POINT ( 'NONE', #349 ) ;
#97 = EDGE_CURVE ( 'NONE', #280, #161, #100, .T. ) ;
#98 = AXIS2_PLACEMENT_3D ( 'NONE', #67, #144, #276 ) ;
#99 = EDGE_CURVE ( 'NONE', #161, #280, #180, .T. ) ;
#100 = CIRCLE ( 'NONE', #306, 12.70000000000000300 ) ;
#101 = ORIENTED_EDGE ( 'NONE', *, *, #227, .F. ) ;
#102 = FACE_OUTER_BOUND ( 'NONE', #347, .T. ) ;
#103 = ORIENTED_EDGE ( 'NONE', *, *, #59, .T. ) ;
#104 = DIRECTION ( 'NONE',  ( -1.000000000000000000, 0.0000000000000000000, 0.0000000000000000000 ) ) ;
#105 = CARTESIAN_POINT ( 'NONE',  ( 0.0000000000000000000, 0.0000000000000000000, -2.427039626304208700 ) ) ;
#106 = CARTESIAN_POINT ( 'NONE',  ( 12.47293809500225100, 1.527494371400759100E-015, -0.1929354392768319000 ) ) ;
#107 = VECTOR ( 'NONE', #89, 1000.000000000000200 ) ;
#108 = CONICAL_SURFACE ( 'NONE', #331, 12.47293809500225100, 0.5743479550940565600 ) ;
#109 = ORIENTED_EDGE ( 'NONE', *, *, #183, .F. ) ;
#110 =( NAMED_UNIT ( * ) PLANE_ANGLE_UNIT ( ) SI_UNIT ( $, .RADIAN. ) );
#111 = APPROVAL_ROLE ( '' ) ;
#112 = EDGE_CURVE ( 'NONE', #297, #280, #289, .T. ) ;
#113 = LINE ( 'NONE', #286, #107 ) ;
#114 = ORIENTED_EDGE ( 'NONE', *, *, #283, .F. ) ;
#115 = DIRECTION ( 'NONE',  ( -1.000000000000000000, 0.0000000000000000000, 0.0000000000000000000 ) ) ;
#116 = CARTESIAN_POINT ( 'NONE',  ( 0.0000000000000000000, 0.0000000000000000000, -92.77296037369579600 ) ) ;
#117 = DIRECTION ( 'NONE',  ( -1.000000000000000000, 1.224646799147353200E-016, 0.0000000000000000000 ) ) ;
#118 = AXIS2_PLACEMENT_3D ( 'NONE', #169, #223, #56 ) ;
#119 = DATE_AND_TIME ( #355, #292 ) ;
#120 = EDGE_LOOP ( 'NONE', ( #83, #114, #109, #155, #235 ) ) ;
#121 = DIRECTION ( 'NONE',  ( -0.0000000000000000000, -0.0000000000000000000, 1.000000000000000000 ) ) ;
#122 = APPROVAL_DATE_TIME ( #361, #228 ) ;
#123 = LINE ( 'NONE', #189, #296 ) ;
#124 = ORIENTED_EDGE ( 'NONE', *, *, #97, .T. ) ;
#125 = ADVANCED_FACE ( 'NONE', ( #102 ), #238, .T. ) ;
#126 = ADVANCED_FACE ( 'NONE', ( #354 ), #127, .T. ) ;
#127 = CYLINDRICAL_SURFACE ( 'NONE', #269, 12.70000000000000300 ) ;
#128 = EDGE_CURVE ( 'NONE', #152, #162, #323, .T. ) ;
#129 = CARTESIAN_POINT ( 'NONE',  ( 0.0000000000000000000, 0.0000000000000000000, -28.57296037369578900 ) ) ;
#130 = AXIS2_PLACEMENT_3D ( 'NONE', #348, #140, #115 ) ;
#131 = VECTOR ( 'NONE', #216, 1000.000000000000000 ) ;
#132 = DIRECTION ( 'NONE',  ( -1.000000000000000000, 0.0000000000000000000, 0.0000000000000000000 ) ) ;
#133 = CIRCLE ( 'NONE', #290, 91.20000000000000300 ) ;
#134 = DIRECTION ( 'NONE',  ( -0.0000000000000000000, -0.0000000000000000000, 1.000000000000000000 ) ) ;
#135 = DIRECTION ( 'NONE',  ( 1.000000000000000000, -1.224646799147353200E-016, 0.0000000000000000000 ) ) ;
#136 = DATE_TIME_ROLE ( 'creation_date' ) ;
#137 = APPROVAL_PERSON_ORGANIZATION ( #69, #327, #163 ) ;
#138 = CARTESIAN_POINT ( 'NONE',  ( -12.47293809500225800, 0.0000000000000000000, -0.1929354392768353700 ) ) ;
#139 = CARTESIAN_POINT ( 'NONE',  ( 0.0000000000000000000, 0.0000000000000000000, -0.1929354392768353700 ) ) ;
#140 = DIRECTION ( 'NONE',  ( 0.0000000000000000000, 0.0000000000000000000, -1.000000000000000000 ) ) ;
#141 = DIRECTION ( 'NONE',  ( 1.000000000000000000, 0.0000000000000000000, 0.0000000000000000000 ) ) ;
#142 = DIRECTION ( 'NONE',  ( -0.0000000000000000000, -0.0000000000000000000, 1.000000000000000000 ) ) ;
#143 = CIRCLE ( 'NONE', #42, 12.47293809500225600 ) ;
#144 = DIRECTION ( 'NONE',  ( 1.000000000000000000, 0.0000000000000000000, 0.0000000000000000000 ) ) ;
#145 = ORIENTED_EDGE ( 'NONE', *, *, #244, .F. ) ;
#146 = APPROVAL_PERSON_ORGANIZATION ( #95, #228, #111 ) ;
#147 = DATE_AND_TIME ( #40, #158 ) ;
#148 = EDGE_CURVE ( 'NONE', #72, #161, #317, .T. ) ;
#149 = FACE_OUTER_BOUND ( 'NONE', #39, .T. ) ;
#150 = ORIENTED_EDGE ( 'NONE', *, *, #71, .T. ) ;
#151 = AXIS2_PLACEMENT_3D ( 'NONE', #301, #121, #217 ) ;
#152 = VERTEX_POINT ( 'NONE', #337 ) ;
#153 = PERSON_AND_ORGANIZATION ( #330, #304 ) ;
#154 = ORIENTED_EDGE ( 'NONE', *, *, #19, .F. ) ;
#155 = ORIENTED_EDGE ( 'NONE', *, *, #80, .T. ) ;
#156 = DIRECTION ( 'NONE',  ( -1.000000000000000000, 0.0000000000000000000, 0.0000000000000000000 ) ) ;
#157 = CIRCLE ( 'NONE', #356, 30.99999999999999600 ) ;
#158 = LOCAL_TIME ( 11, 20, 35.00000000000000000, #322 ) ;
#159 = CARTESIAN_POINT ( 'NONE',  ( 1.524941505942911100E-015, 12.45209236658794100, -2.427039626304208700 ) ) ;
#160 = CARTESIAN_POINT ( 'NONE',  ( 0.0000000000000000000, 0.0000000000000000000, -2.211554670982898600 ) ) ;
#161 = VERTEX_POINT ( 'NONE', #246 ) ;
#162 = VERTEX_POINT ( 'NONE', #159 ) ;
#163 = APPROVAL_ROLE ( '' ) ;
#164 = MANIFOLD_SOLID_BREP ( '4925-001-1-solid1', #17 ) ;
#165 = DIRECTION ( 'NONE',  ( -1.000000000000000000, 0.0000000000000000000, 0.0000000000000000000 ) ) ;
#166 = EDGE_CURVE ( 'NONE', #341, #72, #123, .T. ) ;
#167 = DIRECTION ( 'NONE',  ( 1.000000000000000000, 0.0000000000000000000, 0.0000000000000000000 ) ) ;
#168 = AXIS2_PLACEMENT_3D ( 'NONE', #26, #192, #29 ) ;
#169 = CARTESIAN_POINT ( 'NONE',  ( 0.0000000000000000000, 0.0000000000000000000, -2.427039626304208700 ) ) ;
#170 = DIRECTION ( 'NONE',  ( -0.0000000000000000000, -0.0000000000000000000, 1.000000000000000000 ) ) ;
#171 = VECTOR ( 'NONE', #25, 1000.000000000000000 ) ;
#172 = ORIENTED_EDGE ( 'NONE', *, *, #41, .F. ) ;
#173 = CARTESIAN_POINT ( 'NONE',  ( 0.0000000000000000000, 0.0000000000000000000, -2.211554670982898600 ) ) ;
#174 = DATE_AND_TIME ( #214, #210 ) ;
#175 = AXIS2_PLACEMENT_3D ( 'NONE', #311, #135, #343 ) ;
#176 = DIRECTION ( 'NONE',  ( -0.0000000000000000000, -0.0000000000000000000, 1.000000000000000000 ) ) ;
#177 = ORIENTED_EDGE ( 'NONE', *, *, #59, .F. ) ;
#178 = CALENDAR_DATE ( 2015, 13, 7 ) ;
#179 = AXIS2_PLACEMENT_3D ( 'NONE', #116, #32, #315 ) ;
#180 = CIRCLE ( 'NONE', #193, 12.70000000000000300 ) ;
#181 = FACE_OUTER_BOUND ( 'NONE', #195, .T. ) ;
#182 = ORIENTED_EDGE ( 'NONE', *, *, #148, .T. ) ;
#183 = EDGE_CURVE ( 'NONE', #28, #96, #43, .T. ) ;
#184 = ORIENTED_EDGE ( 'NONE', *, *, #66, .T. ) ;
#185 = CC_DESIGN_PERSON_AND_ORGANIZATION_ASSIGNMENT ( #16, #55, ( #77 ) ) ;
#186 = DIRECTION ( 'NONE',  ( 0.0000000000000000000, 0.0000000000000000000, -1.000000000000000000 ) ) ;
#187 = CARTESIAN_POINT ( 'NONE',  ( 0.0000000000000000000, 0.0000000000000000000, 2.427039626304206900 ) ) ;
#188 = AXIS2_PLACEMENT_3D ( 'NONE', #54, #251, #84 ) ;
#189 = CARTESIAN_POINT ( 'NONE',  ( 12.70000000000000300, 0.0000000000000000000, -2.211554670982898600 ) ) ;
#190 = SHAPE_DEFINITION_REPRESENTATION ( #88, #320 ) ;
#191 = CARTESIAN_POINT ( 'NONE',  ( 12.45209236658787900, 0.0000000000000000000, -2.427039626304208700 ) ) ;
#192 = DIRECTION ( 'NONE',  ( 0.0000000000000000000, 0.0000000000000000000, 1.000000000000000000 ) ) ;
#193 = AXIS2_PLACEMENT_3D ( 'NONE', #78, #272, #104 ) ;
#194 = PERSON_AND_ORGANIZATION_ROLE ( 'design_supplier' ) ;
#195 = EDGE_LOOP ( 'NONE', ( #93, #333, #124, #33 ) ) ;
#196 = CARTESIAN_POINT ( 'NONE',  ( 0.0000000000000000000, 0.0000000000000000000, -0.1929354392768319000 ) ) ;
#197 = DIRECTION ( 'NONE',  ( -1.000000000000000000, 0.0000000000000000000, 0.0000000000000000000 ) ) ;
#198 = CARTESIAN_POINT ( 'NONE',  ( -12.70000000000000300, 1.555301434917138800E-015, -2.211554670982898600 ) ) ;
#199 = LOCAL_TIME ( 11, 20, 35.00000000000000000, #357 ) ;
#200 = EDGE_LOOP ( 'NONE', ( #231, #264, #103, #18 ) ) ;
#201 = PERSON_AND_ORGANIZATION ( #330, #304 ) ;
#202 = EDGE_CURVE ( 'NONE', #365, #161, #68, .T. ) ;
#203 = PRODUCT_DEFINITION ( 'UNKNOWN', '', #302, #9 ) ;
#204 = ORIENTED_EDGE ( 'NONE', *, *, #36, .T. ) ;
#205 = AXIS2_PLACEMENT_3D ( 'NONE', #229, #35, #259 ) ;
#206 = ORIENTED_EDGE ( 'NONE', *, *, #50, .T. ) ;
#207 = APPROVAL_DATE_TIME ( #79, #327 ) ;
#208 = PERSON_AND_ORGANIZATION ( #330, #304 ) ;
#209 = AXIS2_PLACEMENT_3D ( 'NONE', #307, #134, #340 ) ;
#210 = LOCAL_TIME ( 11, 20, 35.00000000000000000, #263 ) ;
#211 = SECURITY_CLASSIFICATION ( '', '', #31 ) ;
#212 = ADVANCED_FACE ( 'NONE', ( #321 ), #4, .T. ) ;
#213 = DIRECTION ( 'NONE',  ( 1.000000000000000000, 0.0000000000000000000, 0.0000000000000000000 ) ) ;
#214 = CALENDAR_DATE ( 2015, 13, 7 ) ;
#215 = ORIENTED_EDGE ( 'NONE', *, *, #244, .T. ) ;
#216 = DIRECTION ( 'NONE',  ( -0.0000000000000000000, -0.0000000000000000000, 1.000000000000000000 ) ) ;
#217 = DIRECTION ( 'NONE',  ( 1.000000000000000000, 0.0000000000000000000, 0.0000000000000000000 ) ) ;
#218 = CARTESIAN_POINT ( 'NONE',  ( 12.47293809500225800, 1.541397903158949500E-015, -0.1929354392768353700 ) ) ;
#219 = DIRECTION ( 'NONE',  ( -1.000000000000000000, 0.0000000000000000000, 0.0000000000000000000 ) ) ;
#220 = MECHANICAL_CONTEXT ( 'NONE', #3, 'mechanical' ) ;
#221 = ORIENTED_EDGE ( 'NONE', *, *, #265, .T. ) ;
#222 = ORIENTED_EDGE ( 'NONE', *, *, #97, .F. ) ;
#223 = DIRECTION ( 'NONE',  ( 0.0000000000000000000, 0.0000000000000000000, -1.000000000000000000 ) ) ;
#224 = CARTESIAN_POINT ( 'NONE',  ( -12.70000000000000300, 1.555301434917138800E-015, 2.427039626304206900 ) ) ;
#225 = PERSON_AND_ORGANIZATION_ROLE ( 'classification_officer' ) ;
#226 = CARTESIAN_POINT ( 'NONE',  ( 0.0000000000000000000, 0.0000000000000000000, -92.77296037369579600 ) ) ;
#227 = EDGE_CURVE ( 'NONE', #96, #281, #288, .T. ) ;
#228 = APPROVAL ( #279, 'UNSPECIFIED' ) ;
#229 = CARTESIAN_POINT ( 'NONE',  ( 0.0000000000000000000, 0.0000000000000000000, 2.427039626304206900 ) ) ;
#230 = VECTOR ( 'NONE', #170, 1000.000000000000000 ) ;
#231 = ORIENTED_EDGE ( 'NONE', *, *, #19, .T. ) ;
#232 = FACE_OUTER_BOUND ( 'NONE', #120, .T. ) ;
#233 = DIRECTION ( 'NONE',  ( 0.0000000000000000000, 1.000000000000000000, 0.0000000000000000000 ) ) ;
#234 = AXIS2_PLACEMENT_3D ( 'NONE', #2, #278, #219 ) ;
#235 = ORIENTED_EDGE ( 'NONE', *, *, #99, .F. ) ;
#236 = AXIS2_PLACEMENT_3D ( 'NONE', #129, #156, #336 ) ;
#237 = CC_DESIGN_PERSON_AND_ORGANIZATION_ASSIGNMENT ( #94, #225, ( #211 ) ) ;
#238 = SPHERICAL_SURFACE ( 'NONE', #236, 30.99999999999999600 ) ;
#239 = ORIENTED_EDGE ( 'NONE', *, *, #36, .F. ) ;
#240 = SPHERICAL_SURFACE ( 'NONE', #62, 30.99999999999999600 ) ;
#241 = CIRCLE ( 'NONE', #130, 12.45209236658787900 ) ;
#242 = ADVANCED_FACE ( 'NONE', ( #232 ), #108, .T. ) ;
#243 = VERTEX_POINT ( 'NONE', #350 ) ;
#244 = EDGE_CURVE ( 'NONE', #334, #281, #157, .T. ) ;
#245 = CC_DESIGN_APPROVAL ( #228, ( #203 ) ) ;
#246 = CARTESIAN_POINT ( 'NONE',  ( 12.70000000000000300, 0.0000000000000000000, -0.5438161150729605700 ) ) ;
#247 = AXIS2_PLACEMENT_3D ( 'NONE', #254, #86, #282 ) ;
#248 = LINE ( 'NONE', #30, #21 ) ;
#249 = ORIENTED_EDGE ( 'NONE', *, *, #128, .F. ) ;
#250 =( LENGTH_UNIT ( ) NAMED_UNIT ( * ) SI_UNIT ( .MILLI., .METRE. ) );
#251 = DIRECTION ( 'NONE',  ( 0.0000000000000000000, 0.0000000000000000000, -1.000000000000000000 ) ) ;
#252 = APPLICATION_CONTEXT ( 'configuration controlled 3d designs of mechanical parts and assemblies' ) ;
#253 = AXIS2_PLACEMENT_3D ( 'NONE', #105, #305, #132 ) ;
#254 = CARTESIAN_POINT ( 'NONE',  ( 0.0000000000000000000, 0.0000000000000000000, -2.211554670982898600 ) ) ;
#255 = APPROVAL_STATUS ( 'not_yet_approved' ) ;
#256 = CC_DESIGN_DATE_AND_TIME_ASSIGNMENT ( #119, #57, ( #211 ) ) ;
#257 = DIRECTION ( 'NONE',  ( 0.0000000000000000000, 0.0000000000000000000, 1.000000000000000000 ) ) ;
#258 = DIRECTION ( 'NONE',  ( -1.000000000000000000, 0.0000000000000000000, 0.0000000000000000000 ) ) ;
#259 = DIRECTION ( 'NONE',  ( 1.000000000000000000, 0.0000000000000000000, 0.0000000000000000000 ) ) ;
#260 = DIRECTION ( 'NONE',  ( 1.000000000000000000, 0.0000000000000000000, 0.0000000000000000000 ) ) ;
#261 = CARTESIAN_POINT ( 'NONE',  ( 0.0000000000000000000, 1.898202538678397200E-015, 2.427039626304208700 ) ) ;
#262 = CIRCLE ( 'NONE', #175, 91.20000000000000300 ) ;
#263 = COORDINATED_UNIVERSAL_TIME_OFFSET ( 5, 0, .BEHIND. ) ;
#264 = ORIENTED_EDGE ( 'NONE', *, *, #128, .T. ) ;
#265 = EDGE_CURVE ( 'NONE', #365, #334, #51, .T. ) ;
#266 = CC_DESIGN_PERSON_AND_ORGANIZATION_ASSIGNMENT ( #274, #312, ( #203 ) ) ;
#267 = AXIS2_PLACEMENT_3D ( 'NONE', #139, #345, #165 ) ;
#268 = ADVANCED_FACE ( 'NONE', ( #149 ), #58, .T. ) ;
#269 = AXIS2_PLACEMENT_3D ( 'NONE', #187, #335, #213 ) ;
#270 = APPROVAL ( #255, 'UNSPECIFIED' ) ;
#271 = SPHERICAL_SURFACE ( 'NONE', #98, 91.20000000000000300 ) ;
#272 = DIRECTION ( 'NONE',  ( 0.0000000000000000000, 0.0000000000000000000, -1.000000000000000000 ) ) ;
#273 = CARTESIAN_POINT ( 'NONE',  ( 12.70000000000000300, 0.0000000000000000000, 2.427039626304206900 ) ) ;
#274 = PERSON_AND_ORGANIZATION ( #330, #304 ) ;
#275 = EDGE_LOOP ( 'NONE', ( #172, #154, #239, #34, #298 ) ) ;
#276 = DIRECTION ( 'NONE',  ( 0.0000000000000000000, -1.000000000000000000, 0.0000000000000000000 ) ) ;
#277 = ADVANCED_FACE ( 'NONE', ( #46 ), #240, .T. ) ;
#278 = DIRECTION ( 'NONE',  ( 0.0000000000000000000, 0.0000000000000000000, -1.000000000000000000 ) ) ;
#279 = APPROVAL_STATUS ( 'not_yet_approved' ) ;
#280 = VERTEX_POINT ( 'NONE', #37 ) ;
#281 = VERTEX_POINT ( 'NONE', #261 ) ;
#282 = DIRECTION ( 'NONE',  ( 1.000000000000000000, 0.0000000000000000000, 0.0000000000000000000 ) ) ;
#283 = EDGE_CURVE ( 'NONE', #96, #365, #143, .T. ) ;
#284 = CARTESIAN_POINT ( 'NONE',  ( 0.0000000000000000000, 0.0000000000000000000, -28.57296037369578900 ) ) ;
#285 = CC_DESIGN_DATE_AND_TIME_ASSIGNMENT ( #174, #136, ( #203 ) ) ;
#286 = CARTESIAN_POINT ( 'NONE',  ( -12.70000000000000300, 1.555301434917138800E-015, -2.211554670982898600 ) ) ;
#287 = DIRECTION ( 'NONE',  ( -0.0000000000000000000, -0.0000000000000000000, 1.000000000000000000 ) ) ;
#288 = CIRCLE ( 'NONE', #313, 30.99999999999999600 ) ;
#289 = LINE ( 'NONE', #224, #230 ) ;
#290 = AXIS2_PLACEMENT_3D ( 'NONE', #226, #63, #257 ) ;
#291 = ORIENTED_EDGE ( 'NONE', *, *, #183, .T. ) ;
#292 = LOCAL_TIME ( 11, 20, 35.00000000000000000, #326 ) ;
#293 = COORDINATED_UNIVERSAL_TIME_OFFSET ( 5, 0, .BEHIND. ) ;
#294 = AXIS2_PLACEMENT_3D ( 'NONE', #160, #367, #167 ) ;
#295 = CC_DESIGN_APPROVAL ( #270, ( #211 ) ) ;
#296 = VECTOR ( 'NONE', #52, 1000.000000000000200 ) ;
#297 = VERTEX_POINT ( 'NONE', #198 ) ;
#298 = ORIENTED_EDGE ( 'NONE', *, *, #66, .F. ) ;
#299 = CIRCLE ( 'NONE', #151, 12.70000000000000300 ) ;
#300 = ADVANCED_FACE ( 'NONE', ( #61 ), #271, .F. ) ;
#301 = CARTESIAN_POINT ( 'NONE',  ( 0.0000000000000000000, 0.0000000000000000000, -2.211554670982898600 ) ) ;
#302 = PRODUCT_DEFINITION_FORMATION_WITH_SPECIFIED_SOURCE ( 'ANY', '', #77, .NOT_KNOWN. ) ;
#303 = SPHERICAL_SURFACE ( 'NONE', #179, 91.20000000000000300 ) ;
#304 = ORGANIZATION ( 'UNSPECIFIED', 'UNSPECIFIED', '' ) ;
#305 = DIRECTION ( 'NONE',  ( 0.0000000000000000000, 0.0000000000000000000, -1.000000000000000000 ) ) ;
#306 = AXIS2_PLACEMENT_3D ( 'NONE', #362, #186, #24 ) ;
#307 = CARTESIAN_POINT ( 'NONE',  ( 0.0000000000000000000, 0.0000000000000000000, -0.1929354392768353700 ) ) ;
#308 =( NAMED_UNIT ( * ) SI_UNIT ( $, .STERADIAN. ) SOLID_ANGLE_UNIT ( ) );
#309 = CIRCLE ( 'NONE', #118, 12.45209236658787900 ) ;
#310 = ORIENTED_EDGE ( 'NONE', *, *, #202, .T. ) ;
#311 = CARTESIAN_POINT ( 'NONE',  ( 0.0000000000000000000, 0.0000000000000000000, -92.77296037369579600 ) ) ;
#312 = PERSON_AND_ORGANIZATION_ROLE ( 'creator' ) ;
#313 = AXIS2_PLACEMENT_3D ( 'NONE', #284, #117, #316 ) ;
#314 = CC_DESIGN_SECURITY_CLASSIFICATION ( #211, ( #302 ) ) ;
#315 = DIRECTION ( 'NONE',  ( 0.0000000000000000000, -1.000000000000000000, 0.0000000000000000000 ) ) ;
#316 = DIRECTION ( 'NONE',  ( -1.224646799147353200E-016, -1.000000000000000000, 0.0000000000000000000 ) ) ;
#317 = LINE ( 'NONE', #273, #131 ) ;
#318 = EDGE_LOOP ( 'NONE', ( #11, #184, #182, #22 ) ) ;
#319 = CARTESIAN_POINT ( 'NONE',  ( 0.0000000000000000000, 0.0000000000000000000, -0.1929354392768353700 ) ) ;
#320 = ADVANCED_BREP_SHAPE_REPRESENTATION ( '4925-E0W', ( #164, #168 ), #76 ) ;
#321 = FACE_OUTER_BOUND ( 'NONE', #275, .T. ) ;
#322 = COORDINATED_UNIVERSAL_TIME_OFFSET ( 5, 0, .BEHIND. ) ;
#323 = CIRCLE ( 'NONE', #253, 12.45209236658787900 ) ;
#324 = ORIENTED_EDGE ( 'NONE', *, *, #71, .F. ) ;
#325 = CALENDAR_DATE ( 2015, 13, 7 ) ;
#326 = COORDINATED_UNIVERSAL_TIME_OFFSET ( 5, 0, .BEHIND. ) ;
#327 = APPROVAL ( #344, 'UNSPECIFIED' ) ;
#328 = CIRCLE ( 'NONE', #247, 12.70000000000000300 ) ;
#329 = ORIENTED_EDGE ( 'NONE', *, *, #227, .T. ) ;
#330 = PERSON ( 'UNSPECIFIED', 'UNSPECIFIED', 'UNSPECIFIED', ('UNSPECIFIED'), ('UNSPECIFIED'), ('UNSPECIFIED') ) ;
#331 = AXIS2_PLACEMENT_3D ( 'NONE', #196, #64, #258 ) ;
#332 = PRODUCT_RELATED_PRODUCT_CATEGORY ( 'detail', '', ( #77 ) ) ;
#333 = ORIENTED_EDGE ( 'NONE', *, *, #112, .T. ) ;
#334 = VERTEX_POINT ( 'NONE', #1 ) ;
#335 = DIRECTION ( 'NONE',  ( -0.0000000000000000000, -0.0000000000000000000, 1.000000000000000000 ) ) ;
#336 = DIRECTION ( 'NONE',  ( 0.0000000000000000000, 1.000000000000000000, 0.0000000000000000000 ) ) ;
#337 = CARTESIAN_POINT ( 'NONE',  ( -12.45209236658787900, 1.540121470430021300E-015, -2.427039626304208700 ) ) ;
#338 = APPROVAL_PERSON_ORGANIZATION ( #201, #270, #87 ) ;
#339 = ORIENTED_EDGE ( 'NONE', *, *, #50, .F. ) ;
#340 = DIRECTION ( 'NONE',  ( -1.000000000000000000, 0.0000000000000000000, 0.0000000000000000000 ) ) ;
#341 = VERTEX_POINT ( 'NONE', #191 ) ;
#342 = APPLICATION_PROTOCOL_DEFINITION ( 'international standard', 'config_control_design', 1994, #3 ) ;
#343 = DIRECTION ( 'NONE',  ( 1.224646799147353200E-016, 1.000000000000000000, 0.0000000000000000000 ) ) ;
#344 = APPROVAL_STATUS ( 'not_yet_approved' ) ;
#345 = DIRECTION ( 'NONE',  ( -0.0000000000000000000, -0.0000000000000000000, 1.000000000000000000 ) ) ;
#346 = UNCERTAINTY_MEASURE_WITH_UNIT (LENGTH_MEASURE( 1.000000000000000100E-005 ), #250, 'distance_accuracy_value', 'NONE');
#347 = EDGE_LOOP ( 'NONE', ( #101, #359, #221, #215 ) ) ;
#348 = CARTESIAN_POINT ( 'NONE',  ( 0.0000000000000000000, 0.0000000000000000000, -2.427039626304208700 ) ) ;
#349 = CARTESIAN_POINT ( 'NONE',  ( -1.527494371400759300E-015, -12.47293809500225200, -0.1929354392768336500 ) ) ;
#350 = CARTESIAN_POINT ( 'NONE',  ( 0.0000000000000000000, -5.584389404111930500E-015, -1.572960373695794900 ) ) ;
#351 = CC_DESIGN_APPROVAL ( #327, ( #302 ) ) ;
#352 = DIRECTION ( 'NONE',  ( -1.000000000000000000, 0.0000000000000000000, 0.0000000000000000000 ) ) ;
#353 = CARTESIAN_POINT ( 'NONE',  ( 0.0000000000000000000, 0.0000000000000000000, -0.1929354392768353700 ) ) ;
#354 = FACE_OUTER_BOUND ( 'NONE', #318, .T. ) ;
#355 = CALENDAR_DATE ( 2015, 13, 7 ) ;
#356 = AXIS2_PLACEMENT_3D ( 'NONE', #65, #260, #92 ) ;
#357 = COORDINATED_UNIVERSAL_TIME_OFFSET ( 5, 0, .BEHIND. ) ;
#358 = ORIENTED_EDGE ( 'NONE', *, *, #265, .F. ) ;
#359 = ORIENTED_EDGE ( 'NONE', *, *, #283, .T. ) ;
#360 = APPROVAL_DATE_TIME ( #147, #270 ) ;
#361 = DATE_AND_TIME ( #178, #70 ) ;
#362 = CARTESIAN_POINT ( 'NONE',  ( 0.0000000000000000000, 0.0000000000000000000, -0.5438161150729605700 ) ) ;
#363 = CC_DESIGN_PERSON_AND_ORGANIZATION_ASSIGNMENT ( #153, #6, ( #302 ) ) ;
#364 = FACE_OUTER_BOUND ( 'NONE', #200, .T. ) ;
#365 = VERTEX_POINT ( 'NONE', #218 ) ;
#366 = ORIENTED_EDGE ( 'NONE', *, *, #80, .F. ) ;
#367 = DIRECTION ( 'NONE',  ( -0.0000000000000000000, -0.0000000000000000000, 1.000000000000000000 ) ) ;
ENDSEC;
END-ISO-10303-21;
