ISO-10303-21;
HEADER;
FILE_DESCRIPTION (( 'STEP AP214' ),
    '1' );
FILE_NAME ('PKCESP.STEP',
    '2015-01-14T07:21:58',
    ( '' ),
    ( '' ),
    'SwSTEP 2.0',
    'SolidWorks 2012',
    '' );
FILE_SCHEMA (( 'AUTOMOTIVE_DESIGN' ));
ENDSEC;

DATA;
#1 = PRESENTATION_STYLE_ASSIGNMENT (( #89 ) ) ;
#2 = SURFACE_STYLE_FILL_AREA ( #87 ) ;
#3 = MECHANICAL_DESIGN_GEOMETRIC_PRESENTATION_REPRESENTATION (  '', ( #148 ), #4 ) ;
#4 =( GEOMETRIC_REPRESENTATION_CONTEXT ( 3 ) GLOBAL_UNCERTAINTY_ASSIGNED_CONTEXT ( ( #154 ) ) GLOBAL_UNIT_ASSIGNED_CONTEXT ( ( #100, #101, #102 ) ) REPRESENTATION_CONTEXT ( 'NONE', 'WORKASPACE' ) );
#5 = STYLED_ITEM ( 'NONE', ( #50 ), #161 ) ;
#6 = AXIS2_PLACEMENT_3D ( 'NONE', #86, #103, #104 ) ;
#7 = PRESENTATION_LAYER_ASSIGNMENT (  '', '', ( #5 ) ) ;
#8 = MECHANICAL_DESIGN_GEOMETRIC_PRESENTATION_REPRESENTATION (  '', ( #5 ), #9 ) ;
#9 =( GEOMETRIC_REPRESENTATION_CONTEXT ( 3 ) GLOBAL_UNCERTAINTY_ASSIGNED_CONTEXT ( ( #155 ) ) GLOBAL_UNIT_ASSIGNED_CONTEXT ( ( #109, #110, #111 ) ) REPRESENTATION_CONTEXT ( 'NONE', 'WORKASPACE' ) );
#10 = STYLED_ITEM ( 'NONE', ( #57 ), #157 ) ;
#11 = AXIS2_PLACEMENT_3D ( 'NONE', #105, #112, #113 ) ;
#12 =( GEOMETRIC_REPRESENTATION_CONTEXT ( 3 ) GLOBAL_UNCERTAINTY_ASSIGNED_CONTEXT ( ( #156 ) ) GLOBAL_UNIT_ASSIGNED_CONTEXT ( ( #114, #115, #116 ) ) REPRESENTATION_CONTEXT ( 'NONE', 'WORKASPACE' ) );
#13 = PRESENTATION_LAYER_ASSIGNMENT (  '', '', ( #10 ) ) ;
#14 = MECHANICAL_DESIGN_GEOMETRIC_PRESENTATION_REPRESENTATION (  '', ( #10 ), #15 ) ;
#15 =( GEOMETRIC_REPRESENTATION_CONTEXT ( 3 ) GLOBAL_UNCERTAINTY_ASSIGNED_CONTEXT ( ( #158 ) ) GLOBAL_UNIT_ASSIGNED_CONTEXT ( ( #123, #124, #125 ) ) REPRESENTATION_CONTEXT ( 'NONE', 'WORKASPACE' ) );
#16 = AXIS2_PLACEMENT_3D ( 'NONE', #126, #127, #128 ) ;
#17 = PRODUCT_DEFINITION ( 'UNKNOWN', '', #18, #59 ) ;
#18 = PRODUCT_DEFINITION_FORMATION_WITH_SPECIFIED_SOURCE ( 'ANY', '', #44, .NOT_KNOWN. ) ;
#19 = PRODUCT_RELATED_PRODUCT_CATEGORY ( 'part', '', ( #44 ) ) ;
#20 = EDGE_LOOP ( 'NONE', ( #31, #28 ) ) ;
#21 = VERTEX_POINT ( 'NONE', #63 ) ;
#22 = EDGE_LOOP ( 'NONE', ( #27, #43, #30 ) ) ;
#23 = ORIENTED_EDGE ( 'NONE', *, *, #135, .T. ) ;
#24 = ORIENTED_EDGE ( 'NONE', *, *, #132, .F. ) ;
#25 = CLOSED_SHELL ( 'NONE', ( #160, #159, #161 ) ) ;
#26 = VERTEX_POINT ( 'NONE', #61 ) ;
#27 = ORIENTED_EDGE ( 'NONE', *, *, #134, .T. ) ;
#28 = ORIENTED_EDGE ( 'NONE', *, *, #135, .F. ) ;
#29 = ORIENTED_EDGE ( 'NONE', *, *, #133, .T. ) ;
#30 = ORIENTED_EDGE ( 'NONE', *, *, #133, .F. ) ;
#31 = ORIENTED_EDGE ( 'NONE', *, *, #134, .F. ) ;
#32 = VERTEX_POINT ( 'NONE', #62 ) ;
#33 = EDGE_LOOP ( 'NONE', ( #24, #23, #29 ) ) ;
#34 = PRESENTATION_STYLE_ASSIGNMENT (( #82 ) ) ;
#35 = CIRCLE ( 'NONE', #136, 1.000000000000000000 ) ;
#36 = CIRCLE ( 'NONE', #137, 1.000000000000000000 ) ;
#37 = COLOUR_RGB ( '',1.000000000000000000, 0.5019607843137254800, 0.5019607843137254800 ) ;
#38 = COLOUR_RGB ( '',1.000000000000000000, 1.000000000000000000, 1.000000000000000000 ) ;
#39 = SURFACE_STYLE_FILL_AREA ( #76 ) ;
#40 = FACE_OUTER_BOUND ( 'NONE', #20, .T. ) ;
#41 = CIRCLE ( 'NONE', #139, 1.000000000000000000 ) ;
#42 = CIRCLE ( 'NONE', #138, 1.000000000000000000 ) ;
#43 = ORIENTED_EDGE ( 'NONE', *, *, #132, .T. ) ;
#44 = PRODUCT ( 'PKCESP', 'PKCESP', '', ( #129 ) ) ;
#45 = FACE_OUTER_BOUND ( 'NONE', #22, .T. ) ;
#46 = PRESENTATION_STYLE_ASSIGNMENT (( #99 ) ) ;
#47 = SURFACE_STYLE_FILL_AREA ( #97 ) ;
#48 = COLOUR_RGB ( '',1.000000000000000000, 1.000000000000000000, 1.000000000000000000 ) ;
#49 = SPHERICAL_SURFACE ( 'NONE', #6, 1.000000000000000000 ) ;
#50 = PRESENTATION_STYLE_ASSIGNMENT (( #108 ) ) ;
#51 = SURFACE_STYLE_FILL_AREA ( #106 ) ;
#52 = COLOUR_RGB ( '',1.000000000000000000, 1.000000000000000000, 1.000000000000000000 ) ;
#53 = FACE_OUTER_BOUND ( 'NONE', #33, .T. ) ;
#54 = SPHERICAL_SURFACE ( 'NONE', #11, 1.000000000000000000 ) ;
#55 = SURFACE_STYLE_FILL_AREA ( #120 ) ;
#56 = COLOUR_RGB ( '',1.000000000000000000, 0.5019607843137254800, 0.5019607843137254800 ) ;
#57 = PRESENTATION_STYLE_ASSIGNMENT (( #122 ) ) ;
#58 = SHAPE_DEFINITION_REPRESENTATION ( #60, #157 ) ;
#59 = PRODUCT_DEFINITION_CONTEXT ( 'detailed design', #130, 'design' ) ;
#60 = PRODUCT_DEFINITION_SHAPE ( 'NONE', 'NONE',  #17 ) ;
#61 = CARTESIAN_POINT ( 'NONE',  ( 1.000000000000000000, -1.224646799147353200E-016, 0.0000000000000000000 ) ) ;
#62 = CARTESIAN_POINT ( 'NONE',  ( -6.123233995736766000E-017, 0.0000000000000000000, 1.000000000000000000 ) ) ;
#63 = CARTESIAN_POINT ( 'NONE',  ( -1.000000000000000000, 0.0000000000000000000, 0.0000000000000000000 ) ) ;
#64 = CARTESIAN_POINT ( 'NONE',  ( 0.0000000000000000000, 0.0000000000000000000, 0.0000000000000000000 ) ) ;
#65 = DIRECTION ( 'NONE',  ( -1.224646799147353200E-016, -1.000000000000000000, -0.0000000000000000000 ) ) ;
#66 = DIRECTION ( 'NONE',  ( 1.000000000000000000, -1.224646799147353200E-016, 0.0000000000000000000 ) ) ;
#67 = FILL_AREA_STYLE_COLOUR ( '', #37 ) ;
#68 = CARTESIAN_POINT ( 'NONE',  ( 0.0000000000000000000, 0.0000000000000000000, 0.0000000000000000000 ) ) ;
#69 = DIRECTION ( 'NONE',  ( 0.0000000000000000000, 1.000000000000000000, 0.0000000000000000000 ) ) ;
#70 = DIRECTION ( 'NONE',  ( 0.0000000000000000000, 0.0000000000000000000, 1.000000000000000000 ) ) ;
#71 = FILL_AREA_STYLE_COLOUR ( '', #48 ) ;
#72 = PLANE ( 'NONE',  #149 ) ;
#73 = CARTESIAN_POINT ( 'NONE',  ( 0.0000000000000000000, 0.0000000000000000000, 0.0000000000000000000 ) ) ;
#74 = DIRECTION ( 'NONE',  ( -0.0000000000000000000, -0.0000000000000000000, 1.000000000000000000 ) ) ;
#75 = DIRECTION ( 'NONE',  ( 1.000000000000000000, 0.0000000000000000000, 0.0000000000000000000 ) ) ;
#76 = FILL_AREA_STYLE ('',( #67 ) ) ;
#77 = FILL_AREA_STYLE_COLOUR ( '', #38 ) ;
#78 = CARTESIAN_POINT ( 'NONE',  ( 0.0000000000000000000, 0.0000000000000000000, 0.0000000000000000000 ) ) ;
#79 = SURFACE_SIDE_STYLE ('',( #39 ) ) ;
#80 = DIRECTION ( 'NONE',  ( -0.0000000000000000000, -0.0000000000000000000, 1.000000000000000000 ) ) ;
#81 = DIRECTION ( 'NONE',  ( 1.000000000000000000, 0.0000000000000000000, 0.0000000000000000000 ) ) ;
#82 = SURFACE_STYLE_USAGE ( .BOTH. , #79 ) ;
#83 =( LENGTH_UNIT ( ) NAMED_UNIT ( * ) SI_UNIT ( .MILLI., .METRE. ) );
#84 =( NAMED_UNIT ( * ) PLANE_ANGLE_UNIT ( ) SI_UNIT ( $, .RADIAN. ) );
#85 =( NAMED_UNIT ( * ) SI_UNIT ( $, .STERADIAN. ) SOLID_ANGLE_UNIT ( ) );
#86 = CARTESIAN_POINT ( 'NONE',  ( 0.0000000000000000000, 0.0000000000000000000, 0.0000000000000000000 ) ) ;
#87 = FILL_AREA_STYLE ('',( #77 ) ) ;
#88 = SURFACE_SIDE_STYLE ('',( #2 ) ) ;
#89 = SURFACE_STYLE_USAGE ( .BOTH. , #88 ) ;
#90 =( LENGTH_UNIT ( ) NAMED_UNIT ( * ) SI_UNIT ( .MILLI., .METRE. ) );
#91 =( NAMED_UNIT ( * ) PLANE_ANGLE_UNIT ( ) SI_UNIT ( $, .RADIAN. ) );
#92 =( NAMED_UNIT ( * ) SI_UNIT ( $, .STERADIAN. ) SOLID_ANGLE_UNIT ( ) );
#93 = CARTESIAN_POINT ( 'NONE',  ( -1.000000000000000000, 0.0000000000000000000, 0.0000000000000000000 ) ) ;
#94 = DIRECTION ( 'NONE',  ( 0.0000000000000000000, -0.0000000000000000000, 1.000000000000000000 ) ) ;
#95 = DIRECTION ( 'NONE',  ( 1.000000000000000000, 0.0000000000000000000, 0.0000000000000000000 ) ) ;
#96 = FILL_AREA_STYLE_COLOUR ( '', #52 ) ;
#97 = FILL_AREA_STYLE ('',( #71 ) ) ;
#98 = SURFACE_SIDE_STYLE ('',( #47 ) ) ;
#99 = SURFACE_STYLE_USAGE ( .BOTH. , #98 ) ;
#100 =( LENGTH_UNIT ( ) NAMED_UNIT ( * ) SI_UNIT ( .MILLI., .METRE. ) );
#101 =( NAMED_UNIT ( * ) PLANE_ANGLE_UNIT ( ) SI_UNIT ( $, .RADIAN. ) );
#102 =( NAMED_UNIT ( * ) SI_UNIT ( $, .STERADIAN. ) SOLID_ANGLE_UNIT ( ) );
#103 = DIRECTION ( 'NONE',  ( -0.0000000000000000000, -1.000000000000000000, 0.0000000000000000000 ) ) ;
#104 = DIRECTION ( 'NONE',  ( -1.000000000000000000, 0.0000000000000000000, 0.0000000000000000000 ) ) ;
#105 = CARTESIAN_POINT ( 'NONE',  ( 0.0000000000000000000, 0.0000000000000000000, 0.0000000000000000000 ) ) ;
#106 = FILL_AREA_STYLE ('',( #96 ) ) ;
#107 = SURFACE_SIDE_STYLE ('',( #51 ) ) ;
#108 = SURFACE_STYLE_USAGE ( .BOTH. , #107 ) ;
#109 =( LENGTH_UNIT ( ) NAMED_UNIT ( * ) SI_UNIT ( .MILLI., .METRE. ) );
#110 =( NAMED_UNIT ( * ) PLANE_ANGLE_UNIT ( ) SI_UNIT ( $, .RADIAN. ) );
#111 =( NAMED_UNIT ( * ) SI_UNIT ( $, .STERADIAN. ) SOLID_ANGLE_UNIT ( ) );
#112 = DIRECTION ( 'NONE',  ( -0.0000000000000000000, -1.000000000000000000, 0.0000000000000000000 ) ) ;
#113 = DIRECTION ( 'NONE',  ( -1.000000000000000000, 0.0000000000000000000, 0.0000000000000000000 ) ) ;
#114 =( LENGTH_UNIT ( ) NAMED_UNIT ( * ) SI_UNIT ( .MILLI., .METRE. ) );
#115 =( NAMED_UNIT ( * ) PLANE_ANGLE_UNIT ( ) SI_UNIT ( $, .RADIAN. ) );
#116 =( NAMED_UNIT ( * ) SI_UNIT ( $, .STERADIAN. ) SOLID_ANGLE_UNIT ( ) );
#117 = APPLICATION_PROTOCOL_DEFINITION ( 'draft international standard', 'automotive_design', 1998, #118 ) ;
#118 = APPLICATION_CONTEXT ( 'automotive_design' ) ;
#119 = FILL_AREA_STYLE_COLOUR ( '', #56 ) ;
#120 = FILL_AREA_STYLE ('',( #119 ) ) ;
#121 = SURFACE_SIDE_STYLE ('',( #55 ) ) ;
#122 = SURFACE_STYLE_USAGE ( .BOTH. , #121 ) ;
#123 =( LENGTH_UNIT ( ) NAMED_UNIT ( * ) SI_UNIT ( .MILLI., .METRE. ) );
#124 =( NAMED_UNIT ( * ) PLANE_ANGLE_UNIT ( ) SI_UNIT ( $, .RADIAN. ) );
#125 =( NAMED_UNIT ( * ) SI_UNIT ( $, .STERADIAN. ) SOLID_ANGLE_UNIT ( ) );
#126 = CARTESIAN_POINT ( 'NONE',  ( 0.0000000000000000000, 0.0000000000000000000, 0.0000000000000000000 ) ) ;
#127 = DIRECTION ( 'NONE',  ( 0.0000000000000000000, 0.0000000000000000000, 1.000000000000000000 ) ) ;
#128 = DIRECTION ( 'NONE',  ( 1.000000000000000000, 0.0000000000000000000, 0.0000000000000000000 ) ) ;
#129 = PRODUCT_CONTEXT ( 'NONE', #118, 'mechanical' ) ;
#130 = APPLICATION_CONTEXT ( 'automotive_design' ) ;
#131 = APPLICATION_PROTOCOL_DEFINITION ( 'draft international standard', 'automotive_design', 1998, #130 ) ;
#132 = EDGE_CURVE ( 'NONE', #26, #32, #35, .T. ) ;
#133 = EDGE_CURVE ( 'NONE', #21, #32, #36, .T. ) ;
#134 = EDGE_CURVE ( 'NONE', #21, #26, #42, .T. ) ;
#135 = EDGE_CURVE ( 'NONE', #26, #21, #41, .T. ) ;
#136 = AXIS2_PLACEMENT_3D ( 'NONE', #64, #65, #66 ) ;
#137 = AXIS2_PLACEMENT_3D ( 'NONE', #68, #69, #70 ) ;
#138 = AXIS2_PLACEMENT_3D ( 'NONE', #73, #74, #75 ) ;
#139 = AXIS2_PLACEMENT_3D ( 'NONE', #78, #80, #81 ) ;
#140 = STYLED_ITEM ( 'NONE', ( #34 ), #151 ) ;
#141 = PRESENTATION_LAYER_ASSIGNMENT (  '', '', ( #140 ) ) ;
#142 = MECHANICAL_DESIGN_GEOMETRIC_PRESENTATION_REPRESENTATION (  '', ( #140 ), #143 ) ;
#143 =( GEOMETRIC_REPRESENTATION_CONTEXT ( 3 ) GLOBAL_UNCERTAINTY_ASSIGNED_CONTEXT ( ( #152 ) ) GLOBAL_UNIT_ASSIGNED_CONTEXT ( ( #83, #84, #85 ) ) REPRESENTATION_CONTEXT ( 'NONE', 'WORKASPACE' ) );
#144 = STYLED_ITEM ( 'NONE', ( #1 ), #159 ) ;
#145 = PRESENTATION_LAYER_ASSIGNMENT (  '', '', ( #144 ) ) ;
#146 = MECHANICAL_DESIGN_GEOMETRIC_PRESENTATION_REPRESENTATION (  '', ( #144 ), #147 ) ;
#147 =( GEOMETRIC_REPRESENTATION_CONTEXT ( 3 ) GLOBAL_UNCERTAINTY_ASSIGNED_CONTEXT ( ( #153 ) ) GLOBAL_UNIT_ASSIGNED_CONTEXT ( ( #90, #91, #92 ) ) REPRESENTATION_CONTEXT ( 'NONE', 'WORKASPACE' ) );
#148 = STYLED_ITEM ( 'NONE', ( #46 ), #160 ) ;
#149 = AXIS2_PLACEMENT_3D ( 'NONE', #93, #94, #95 ) ;
#150 = PRESENTATION_LAYER_ASSIGNMENT (  '', '', ( #148 ) ) ;
#151 = MANIFOLD_SOLID_BREP ( 'Revolve1', #25 ) ;
#152 = UNCERTAINTY_MEASURE_WITH_UNIT (LENGTH_MEASURE( 1.000000000000000100E-005 ), #83, 'distance_accuracy_value', 'NONE');
#153 = UNCERTAINTY_MEASURE_WITH_UNIT (LENGTH_MEASURE( 1.000000000000000100E-005 ), #90, 'distance_accuracy_value', 'NONE');
#154 = UNCERTAINTY_MEASURE_WITH_UNIT (LENGTH_MEASURE( 1.000000000000000100E-005 ), #100, 'distance_accuracy_value', 'NONE');
#155 = UNCERTAINTY_MEASURE_WITH_UNIT (LENGTH_MEASURE( 1.000000000000000100E-005 ), #109, 'distance_accuracy_value', 'NONE');
#156 = UNCERTAINTY_MEASURE_WITH_UNIT (LENGTH_MEASURE( 1.000000000000000100E-005 ), #114, 'distance_accuracy_value', 'NONE');
#157 = ADVANCED_BREP_SHAPE_REPRESENTATION ( 'PKCESP', ( #151, #16 ), #12 ) ;
#158 = UNCERTAINTY_MEASURE_WITH_UNIT (LENGTH_MEASURE( 1.000000000000000100E-005 ), #123, 'distance_accuracy_value', 'NONE');
#159 = ADVANCED_FACE ( 'NONE', ( #40 ), #72, .F. ) ;
#160 = ADVANCED_FACE ( 'NONE', ( #45 ), #49, .T. ) ;
#161 = ADVANCED_FACE ( 'NONE', ( #53 ), #54, .T. ) ;
ENDSEC;
END-ISO-10303-21;
