ISO-10303-21;
HEADER;
FILE_DESCRIPTION (( 'STEP AP203' ),
    '1' );
FILE_NAME ('Web Model Ø5-75mm Indoor Hydrophobic Windows_36071.step',
    '2017-09-07T19:06:57',
    ( '' ),
    ( '' ),
    'SwSTEP 2.0',
    'SolidWorks 2016',
    '' );
FILE_SCHEMA (( 'CONFIG_CONTROL_DESIGN' ));
ENDSEC;

DATA;
#1 = APPROVAL_DATE_TIME ( #169, #143 ) ;
#2 = SECURITY_CLASSIFICATION_LEVEL ( 'unclassified' ) ;
#3 = PERSON_AND_ORGANIZATION_ROLE ( 'classification_officer' ) ;
#4 = ORIENTED_EDGE ( 'NONE', *, *, #50, .T. ) ;
#5 = CARTESIAN_POINT ( 'NONE',  ( -7.500000000000000000, 0.0000000000000000000, -0.5500000000000000400 ) ) ;
#6 = DIRECTION ( 'NONE',  ( 1.000000000000000000, 0.0000000000000000000, 0.0000000000000000000 ) ) ;
#7 = PRODUCT_DEFINITION_FORMATION_WITH_SPECIFIED_SOURCE ( 'ANY', '', #160, .NOT_KNOWN. ) ;
#8 = LINE ( 'NONE', #120, #172 ) ;
#9 = CC_DESIGN_PERSON_AND_ORGANIZATION_ASSIGNMENT ( #79, #58, ( #7 ) ) ;
#10 = EDGE_LOOP ( 'NONE', ( #78, #119 ) ) ;
#11 = DIRECTION ( 'NONE',  ( 1.000000000000000000, 0.0000000000000000000, 0.0000000000000000000 ) ) ;
#12 = ORIENTED_EDGE ( 'NONE', *, *, #134, .T. ) ;
#13 = CC_DESIGN_APPROVAL ( #166, ( #7 ) ) ;
#14 = PERSON_AND_ORGANIZATION ( #31, #47 ) ;
#15 = ORIENTED_EDGE ( 'NONE', *, *, #53, .F. ) ;
#16 = DATE_AND_TIME ( #44, #77 ) ;
#17 = FACE_OUTER_BOUND ( 'NONE', #175, .T. ) ;
#18 = CC_DESIGN_PERSON_AND_ORGANIZATION_ASSIGNMENT ( #146, #81, ( #7 ) ) ;
#19 = LOCAL_TIME ( 15, 6, 57.00000000000000000, #68 ) ;
#20 = APPROVAL_STATUS ( 'not_yet_approved' ) ;
#21 = APPROVAL_STATUS ( 'not_yet_approved' ) ;
#22 = ADVANCED_FACE ( 'NONE', ( #45 ), #98, .F. ) ;
#23 = APPLICATION_PROTOCOL_DEFINITION ( 'international standard', 'config_control_design', 1994, #72 ) ;
#24 = DIRECTION ( 'NONE',  ( 0.0000000000000000000, 0.0000000000000000000, 1.000000000000000000 ) ) ;
#25 = PERSON_AND_ORGANIZATION ( #31, #47 ) ;
#26 =( LENGTH_UNIT ( ) NAMED_UNIT ( * ) SI_UNIT ( .MILLI., .METRE. ) );
#27 =( NAMED_UNIT ( * ) SI_UNIT ( $, .STERADIAN. ) SOLID_ANGLE_UNIT ( ) );
#28 = CYLINDRICAL_SURFACE ( 'NONE', #80, 7.500000000000000000 ) ;
#29 = APPROVAL_DATE_TIME ( #99, #70 ) ;
#30 = LINE ( 'NONE', #140, #164 ) ;
#31 = PERSON ( 'UNSPECIFIED', 'UNSPECIFIED', 'UNSPECIFIED', ('UNSPECIFIED'), ('UNSPECIFIED'), ('UNSPECIFIED') ) ;
#32 = PERSON_AND_ORGANIZATION ( #31, #47 ) ;
#33 = DESIGN_CONTEXT ( 'detailed design', #72, 'design' ) ;
#34 = AXIS2_PLACEMENT_3D ( 'NONE', #90, #128, #6 ) ;
#35 = PERSON_AND_ORGANIZATION_ROLE ( 'design_owner' ) ;
#36 = CARTESIAN_POINT ( 'NONE',  ( 0.0000000000000000000, 0.0000000000000000000, 0.5500000000000000400 ) ) ;
#37 = LOCAL_TIME ( 15, 6, 57.00000000000000000, #89 ) ;
#38 = DIRECTION ( 'NONE',  ( -0.0000000000000000000, -0.0000000000000000000, -1.000000000000000000 ) ) ;
#39 = DIRECTION ( 'NONE',  ( 1.000000000000000000, 0.0000000000000000000, 0.0000000000000000000 ) ) ;
#40 = SECURITY_CLASSIFICATION ( '', '', #2 ) ;
#41 = CARTESIAN_POINT ( 'NONE',  ( 0.0000000000000000000, 0.0000000000000000000, 0.5500000000000000400 ) ) ;
#42 = ADVANCED_FACE ( 'NONE', ( #17 ), #97, .T. ) ;
#43 = EDGE_CURVE ( 'NONE', #112, #115, #102, .T. ) ;
#44 = CALENDAR_DATE ( 2017, 7, 9 ) ;
#45 = FACE_OUTER_BOUND ( 'NONE', #121, .T. ) ;
#46 = ORIENTED_EDGE ( 'NONE', *, *, #155, .T. ) ;
#47 = ORGANIZATION ( 'UNSPECIFIED', 'UNSPECIFIED', '' ) ;
#48 = CARTESIAN_POINT ( 'NONE',  ( 0.0000000000000000000, 0.0000000000000000000, -0.5500000000000000400 ) ) ;
#49 = ORIENTED_EDGE ( 'NONE', *, *, #53, .T. ) ;
#50 = EDGE_CURVE ( 'NONE', #112, #123, #30, .T. ) ;
#51 = CARTESIAN_POINT ( 'NONE',  ( 0.0000000000000000000, 0.0000000000000000000, 0.5500000000000000400 ) ) ;
#52 = ORIENTED_EDGE ( 'NONE', *, *, #43, .F. ) ;
#53 = EDGE_CURVE ( 'NONE', #123, #127, #157, .T. ) ;
#54 = AXIS2_PLACEMENT_3D ( 'NONE', #48, #60, #150 ) ;
#55 = COORDINATED_UNIVERSAL_TIME_OFFSET ( 5, 0, .BEHIND. ) ;
#56 = CALENDAR_DATE ( 2017, 7, 9 ) ;
#57 = APPROVAL_ROLE ( '' ) ;
#58 = PERSON_AND_ORGANIZATION_ROLE ( 'creator' ) ;
#59 = LOCAL_TIME ( 15, 6, 57.00000000000000000, #55 ) ;
#60 = DIRECTION ( 'NONE',  ( 0.0000000000000000000, 0.0000000000000000000, 1.000000000000000000 ) ) ;
#61 = AXIS2_PLACEMENT_3D ( 'NONE', #76, #168, #110 ) ;
#62 = PLANE ( 'NONE',  #171 ) ;
#63 = DIRECTION ( 'NONE',  ( -0.0000000000000000000, -0.0000000000000000000, -1.000000000000000000 ) ) ;
#64 = CARTESIAN_POINT ( 'NONE',  ( 0.0000000000000000000, 0.0000000000000000000, -0.5500000000000000400 ) ) ;
#65 = DATE_AND_TIME ( #126, #94 ) ;
#66 = ADVANCED_FACE ( 'NONE', ( #144 ), #62, .T. ) ;
#67 = PERSON_AND_ORGANIZATION ( #31, #47 ) ;
#68 = COORDINATED_UNIVERSAL_TIME_OFFSET ( 5, 0, .BEHIND. ) ;
#69 = ORIENTED_EDGE ( 'NONE', *, *, #50, .F. ) ;
#70 = APPROVAL ( #165, 'UNSPECIFIED' ) ;
#71 = PERSON_AND_ORGANIZATION ( #31, #47 ) ;
#72 = APPLICATION_CONTEXT ( 'configuration controlled 3d designs of mechanical parts and assemblies' ) ;
#73 = DIRECTION ( 'NONE',  ( -0.0000000000000000000, -0.0000000000000000000, -1.000000000000000000 ) ) ;
#74 = CIRCLE ( 'NONE', #34, 7.500000000000000000 ) ;
#75 = AXIS2_PLACEMENT_3D ( 'NONE', #51, #101, #11 ) ;
#76 = CARTESIAN_POINT ( 'NONE',  ( 0.0000000000000000000, 0.0000000000000000000, 0.0000000000000000000 ) ) ;
#77 = LOCAL_TIME ( 15, 6, 57.00000000000000000, #111 ) ;
#78 = ORIENTED_EDGE ( 'NONE', *, *, #145, .T. ) ;
#79 = PERSON_AND_ORGANIZATION ( #31, #47 ) ;
#80 = AXIS2_PLACEMENT_3D ( 'NONE', #154, #91, #100 ) ;
#81 = PERSON_AND_ORGANIZATION_ROLE ( 'design_supplier' ) ;
#82 = UNCERTAINTY_MEASURE_WITH_UNIT (LENGTH_MEASURE( 1.000000000000000100E-005 ), #26, 'distance_accuracy_value', 'NONE');
#83 = PERSON_AND_ORGANIZATION_ROLE ( 'creator' ) ;
#84 = ORIENTED_EDGE ( 'NONE', *, *, #145, .F. ) ;
#85 = DIRECTION ( 'NONE',  ( 0.0000000000000000000, 0.0000000000000000000, 1.000000000000000000 ) ) ;
#86 = ADVANCED_FACE ( 'NONE', ( #152 ), #28, .T. ) ;
#87 = CARTESIAN_POINT ( 'NONE',  ( -7.500000000000000000, 0.0000000000000000000, 0.5500000000000000400 ) ) ;
#88 = DIRECTION ( 'NONE',  ( 1.000000000000000000, 0.0000000000000000000, -0.0000000000000000000 ) ) ;
#89 = COORDINATED_UNIVERSAL_TIME_OFFSET ( 5, 0, .BEHIND. ) ;
#90 = CARTESIAN_POINT ( 'NONE',  ( 0.0000000000000000000, 0.0000000000000000000, 0.5500000000000000400 ) ) ;
#91 = DIRECTION ( 'NONE',  ( -0.0000000000000000000, -0.0000000000000000000, -1.000000000000000000 ) ) ;
#92 =( GEOMETRIC_REPRESENTATION_CONTEXT ( 3 ) GLOBAL_UNCERTAINTY_ASSIGNED_CONTEXT ( ( #82 ) ) GLOBAL_UNIT_ASSIGNED_CONTEXT ( ( #26, #117, #27 ) ) REPRESENTATION_CONTEXT ( 'NONE', 'WORKASPACE' ) );
#93 = EDGE_LOOP ( 'NONE', ( #52, #4, #49, #124 ) ) ;
#94 = LOCAL_TIME ( 15, 6, 57.00000000000000000, #158 ) ;
#95 = APPLICATION_CONTEXT ( 'configuration controlled 3d designs of mechanical parts and assemblies' ) ;
#96 = DATE_TIME_ROLE ( 'classification_date' ) ;
#97 = CYLINDRICAL_SURFACE ( 'NONE', #174, 7.500000000000000000 ) ;
#98 = PLANE ( 'NONE',  #54 ) ;
#99 = DATE_AND_TIME ( #56, #37 ) ;
#100 = DIRECTION ( 'NONE',  ( -1.000000000000000000, 0.0000000000000000000, 0.0000000000000000000 ) ) ;
#101 = DIRECTION ( 'NONE',  ( 0.0000000000000000000, 0.0000000000000000000, 1.000000000000000000 ) ) ;
#102 = CIRCLE ( 'NONE', #75, 7.500000000000000000 ) ;
#103 = ADVANCED_BREP_SHAPE_REPRESENTATION ( 'Web Model +5-75mm Indoor Hydrophobic Windows_36071', ( #136, #61 ), #92 ) ;
#104 = AXIS2_PLACEMENT_3D ( 'NONE', #64, #129, #39 ) ;
#105 = SHAPE_DEFINITION_REPRESENTATION ( #131, #103 ) ;
#106 = CC_DESIGN_DATE_AND_TIME_ASSIGNMENT ( #16, #96, ( #40 ) ) ;
#107 = CALENDAR_DATE ( 2017, 7, 9 ) ;
#108 = CC_DESIGN_SECURITY_CLASSIFICATION ( #40, ( #7 ) ) ;
#109 = AXIS2_PLACEMENT_3D ( 'NONE', #142, #24, #116 ) ;
#110 = DIRECTION ( 'NONE',  ( 1.000000000000000000, 0.0000000000000000000, 0.0000000000000000000 ) ) ;
#111 = COORDINATED_UNIVERSAL_TIME_OFFSET ( 5, 0, .BEHIND. ) ;
#112 = VERTEX_POINT ( 'NONE', #139 ) ;
#113 = APPROVAL_ROLE ( '' ) ;
#114 = CC_DESIGN_APPROVAL ( #70, ( #173 ) ) ;
#115 = VERTEX_POINT ( 'NONE', #87 ) ;
#116 = DIRECTION ( 'NONE',  ( 1.000000000000000000, 0.0000000000000000000, 0.0000000000000000000 ) ) ;
#117 =( NAMED_UNIT ( * ) PLANE_ANGLE_UNIT ( ) SI_UNIT ( $, .RADIAN. ) );
#118 = APPROVAL_DATE_TIME ( #65, #166 ) ;
#119 = ORIENTED_EDGE ( 'NONE', *, *, #43, .T. ) ;
#120 = CARTESIAN_POINT ( 'NONE',  ( -7.500000000000000000, 0.0000000000000000000, 0.5500000000000000400 ) ) ;
#121 = EDGE_LOOP ( 'NONE', ( #170, #15 ) ) ;
#122 = CALENDAR_DATE ( 2017, 7, 9 ) ;
#123 = VERTEX_POINT ( 'NONE', #156 ) ;
#124 = ORIENTED_EDGE ( 'NONE', *, *, #155, .F. ) ;
#125 = CC_DESIGN_PERSON_AND_ORGANIZATION_ASSIGNMENT ( #25, #83, ( #173 ) ) ;
#126 = CALENDAR_DATE ( 2017, 7, 9 ) ;
#127 = VERTEX_POINT ( 'NONE', #5 ) ;
#128 = DIRECTION ( 'NONE',  ( 0.0000000000000000000, 0.0000000000000000000, 1.000000000000000000 ) ) ;
#129 = DIRECTION ( 'NONE',  ( 0.0000000000000000000, 0.0000000000000000000, 1.000000000000000000 ) ) ;
#130 = CC_DESIGN_PERSON_AND_ORGANIZATION_ASSIGNMENT ( #71, #35, ( #160 ) ) ;
#131 = PRODUCT_DEFINITION_SHAPE ( 'NONE', 'NONE',  #173 ) ;
#132 = CC_DESIGN_DATE_AND_TIME_ASSIGNMENT ( #147, #138, ( #173 ) ) ;
#133 = APPROVAL_PERSON_ORGANIZATION ( #32, #166, #57 ) ;
#134 = EDGE_CURVE ( 'NONE', #127, #123, #137, .T. ) ;
#135 = CLOSED_SHELL ( 'NONE', ( #86, #42, #66, #22 ) ) ;
#136 = MANIFOLD_SOLID_BREP ( 'Boss-Extrude1', #135 ) ;
#137 = CIRCLE ( 'NONE', #104, 7.500000000000000000 ) ;
#138 = DATE_TIME_ROLE ( 'creation_date' ) ;
#139 = CARTESIAN_POINT ( 'NONE',  ( 7.500000000000000000, 9.184850993605147900E-016, 0.5500000000000000400 ) ) ;
#140 = CARTESIAN_POINT ( 'NONE',  ( 7.500000000000000000, 9.184850993605147900E-016, 0.5500000000000000400 ) ) ;
#141 = DIRECTION ( 'NONE',  ( -1.000000000000000000, 0.0000000000000000000, 0.0000000000000000000 ) ) ;
#142 = CARTESIAN_POINT ( 'NONE',  ( 0.0000000000000000000, 0.0000000000000000000, -0.5500000000000000400 ) ) ;
#143 = APPROVAL ( #21, 'UNSPECIFIED' ) ;
#144 = FACE_OUTER_BOUND ( 'NONE', #10, .T. ) ;
#145 = EDGE_CURVE ( 'NONE', #115, #112, #74, .T. ) ;
#146 = PERSON_AND_ORGANIZATION ( #31, #47 ) ;
#147 = DATE_AND_TIME ( #122, #19 ) ;
#148 = CC_DESIGN_APPROVAL ( #143, ( #40 ) ) ;
#149 = MECHANICAL_CONTEXT ( 'NONE', #95, 'mechanical' ) ;
#150 = DIRECTION ( 'NONE',  ( 1.000000000000000000, 0.0000000000000000000, -0.0000000000000000000 ) ) ;
#151 = APPROVAL_PERSON_ORGANIZATION ( #67, #143, #113 ) ;
#152 = FACE_OUTER_BOUND ( 'NONE', #93, .T. ) ;
#153 = APPLICATION_PROTOCOL_DEFINITION ( 'international standard', 'config_control_design', 1994, #95 ) ;
#154 = CARTESIAN_POINT ( 'NONE',  ( 0.0000000000000000000, 0.0000000000000000000, 0.5500000000000000400 ) ) ;
#155 = EDGE_CURVE ( 'NONE', #115, #127, #8, .T. ) ;
#156 = CARTESIAN_POINT ( 'NONE',  ( 7.500000000000000000, 9.184850993605147900E-016, -0.5500000000000000400 ) ) ;
#157 = CIRCLE ( 'NONE', #109, 7.500000000000000000 ) ;
#158 = COORDINATED_UNIVERSAL_TIME_OFFSET ( 5, 0, .BEHIND. ) ;
#159 = PRODUCT_RELATED_PRODUCT_CATEGORY ( 'detail', '', ( #160 ) ) ;
#160 = PRODUCT ( 'Web Model Ø5-75mm Indoor Hydrophobic Windows_36071', 'Web Model Ø5-75mm Indoor Hydrophobic Windows_36071', '', ( #149 ) ) ;
#161 = PERSON_AND_ORGANIZATION ( #31, #47 ) ;
#162 = CC_DESIGN_PERSON_AND_ORGANIZATION_ASSIGNMENT ( #161, #3, ( #40 ) ) ;
#163 = APPROVAL_ROLE ( '' ) ;
#164 = VECTOR ( 'NONE', #63, 1000.000000000000000 ) ;
#165 = APPROVAL_STATUS ( 'not_yet_approved' ) ;
#166 = APPROVAL ( #20, 'UNSPECIFIED' ) ;
#167 = APPROVAL_PERSON_ORGANIZATION ( #14, #70, #163 ) ;
#168 = DIRECTION ( 'NONE',  ( 0.0000000000000000000, 0.0000000000000000000, 1.000000000000000000 ) ) ;
#169 = DATE_AND_TIME ( #107, #59 ) ;
#170 = ORIENTED_EDGE ( 'NONE', *, *, #134, .F. ) ;
#171 = AXIS2_PLACEMENT_3D ( 'NONE', #41, #85, #88 ) ;
#172 = VECTOR ( 'NONE', #38, 1000.000000000000000 ) ;
#173 = PRODUCT_DEFINITION ( 'UNKNOWN', '', #7, #33 ) ;
#174 = AXIS2_PLACEMENT_3D ( 'NONE', #36, #73, #141 ) ;
#175 = EDGE_LOOP ( 'NONE', ( #69, #84, #46, #12 ) ) ;
ENDSEC;
END-ISO-10303-21;
