ISO-10303-21;
HEADER;
FILE_DESCRIPTION (( 'STEP AP203' ),
    '1' );
FILE_NAME ('Web Model 68268_68268.step',
    '2017-04-12T16:06:52',
    ( '' ),
    ( '' ),
    'SwSTEP 2.0',
    'SolidWorks 2016',
    '' );
FILE_SCHEMA (( 'CONFIG_CONTROL_DESIGN' ));
ENDSEC;

DATA;
#1 = DIRECTION ( 'NONE',  ( -1.559302000878029000E-016, 1.000000000000000000, -0.0000000000000000000 ) ) ;
#2 = ORIENTED_EDGE ( 'NONE', *, *, #222, .F. ) ;
#3 = CARTESIAN_POINT ( 'NONE',  ( 126.9999999999999700, -177.9999999999999700, 3.000000000000000000 ) ) ;
#4 = VERTEX_POINT ( 'NONE', #3 ) ;
#5 = CC_DESIGN_PERSON_AND_ORGANIZATION_ASSIGNMENT ( #70, #87, ( #30 ) ) ;
#6 = ADVANCED_FACE ( 'NONE', ( #223 ), #72, .F. ) ;
#7 = SHAPE_DEFINITION_REPRESENTATION ( #228, #229 ) ;
#8 = CARTESIAN_POINT ( 'NONE',  ( 126.9999999999999100, 178.0000000000000300, 3.000000000000000000 ) ) ;
#9 = ADVANCED_FACE ( 'NONE', ( #208 ), #190, .F. ) ;
#10 = CARTESIAN_POINT ( 'NONE',  ( -127.0000000000000300, -177.9999999999999700, 0.0000000000000000000 ) ) ;
#11 = ORIENTED_EDGE ( 'NONE', *, *, #131, .F. ) ;
#12 = VERTEX_POINT ( 'NONE', #134 ) ;
#13 = EDGE_LOOP ( 'NONE', ( #33, #167, #150, #157 ) ) ;
#14 = EDGE_CURVE ( 'NONE', #205, #176, #226, .T. ) ;
#15 = ORIENTED_EDGE ( 'NONE', *, *, #155, .F. ) ;
#16 = PERSON_AND_ORGANIZATION ( #46, #18 ) ;
#17 = ORIENTED_EDGE ( 'NONE', *, *, #200, .T. ) ;
#18 = ORGANIZATION ( 'UNSPECIFIED', 'UNSPECIFIED', '' ) ;
#19 = CARTESIAN_POINT ( 'NONE',  ( -127.0000000000000300, -177.9999999999999700, 3.000000000000000000 ) ) ;
#20 = VECTOR ( 'NONE', #90, 1000.000000000000000 ) ;
#21 = EDGE_LOOP ( 'NONE', ( #51, #74, #92, #220 ) ) ;
#22 = PERSON_AND_ORGANIZATION ( #46, #18 ) ;
#23 = DIRECTION ( 'NONE',  ( 0.0000000000000000000, 1.000000000000000000, 0.0000000000000000000 ) ) ;
#24 = AXIS2_PLACEMENT_3D ( 'NONE', #139, #23, #114 ) ;
#25 = DIRECTION ( 'NONE',  ( 1.559302000878029000E-016, -1.000000000000000000, 0.0000000000000000000 ) ) ;
#26 = PLANE ( 'NONE',  #168 ) ;
#27 = CARTESIAN_POINT ( 'NONE',  ( -127.0000000000000900, 178.0000000000000300, 3.000000000000000000 ) ) ;
#28 = DIRECTION ( 'NONE',  ( 0.0000000000000000000, 0.0000000000000000000, 1.000000000000000000 ) ) ;
#29 = ADVANCED_FACE ( 'NONE', ( #96 ), #93, .F. ) ;
#30 = PRODUCT_DEFINITION ( 'UNKNOWN', '', #187, #108 ) ;
#31 = VECTOR ( 'NONE', #60, 1000.000000000000000 ) ;
#32 = DIRECTION ( 'NONE',  ( 1.000000000000000000, 0.0000000000000000000, 0.0000000000000000000 ) ) ;
#33 = ORIENTED_EDGE ( 'NONE', *, *, #14, .T. ) ;
#34 = PLANE ( 'NONE',  #91 ) ;
#35 = UNCERTAINTY_MEASURE_WITH_UNIT (LENGTH_MEASURE( 1.000000000000000100E-005 ), #136, 'distance_accuracy_value', 'NONE');
#36 = ADVANCED_FACE ( 'NONE', ( #142 ), #26, .F. ) ;
#37 = CC_DESIGN_PERSON_AND_ORGANIZATION_ASSIGNMENT ( #16, #160, ( #166 ) ) ;
#38 = EDGE_LOOP ( 'NONE', ( #53, #2, #15, #41 ) ) ;
#39 = LINE ( 'NONE', #210, #57 ) ;
#40 = CARTESIAN_POINT ( 'NONE',  ( -127.0000000000000900, 178.0000000000000300, 3.000000000000000000 ) ) ;
#41 = ORIENTED_EDGE ( 'NONE', *, *, #215, .T. ) ;
#42 = CARTESIAN_POINT ( 'NONE',  ( 126.9999999999999700, -177.9999999999999700, 3.000000000000000000 ) ) ;
#43 = APPROVAL_ROLE ( '' ) ;
#44 = APPROVAL_PERSON_ORGANIZATION ( #173, #113, #140 ) ;
#45 = ORIENTED_EDGE ( 'NONE', *, *, #174, .T. ) ;
#46 = PERSON ( 'UNSPECIFIED', 'UNSPECIFIED', 'UNSPECIFIED', ('UNSPECIFIED'), ('UNSPECIFIED'), ('UNSPECIFIED') ) ;
#47 = LINE ( 'NONE', #42, #214 ) ;
#48 = EDGE_CURVE ( 'NONE', #218, #225, #232, .T. ) ;
#49 = COORDINATED_UNIVERSAL_TIME_OFFSET ( 5, 0, .BEHIND. ) ;
#50 = DATE_AND_TIME ( #186, #209 ) ;
#51 = ORIENTED_EDGE ( 'NONE', *, *, #133, .F. ) ;
#52 = VERTEX_POINT ( 'NONE', #76 ) ;
#53 = ORIENTED_EDGE ( 'NONE', *, *, #106, .T. ) ;
#54 = DIRECTION ( 'NONE',  ( 0.0000000000000000000, -1.000000000000000000, 0.0000000000000000000 ) ) ;
#55 = COORDINATED_UNIVERSAL_TIME_OFFSET ( 5, 0, .BEHIND. ) ;
#56 = ORIENTED_EDGE ( 'NONE', *, *, #165, .T. ) ;
#57 = VECTOR ( 'NONE', #1, 1000.000000000000000 ) ;
#58 = CARTESIAN_POINT ( 'NONE',  ( -127.0000000000000300, -177.9999999999999700, 3.000000000000000000 ) ) ;
#59 = PERSON_AND_ORGANIZATION_ROLE ( 'creator' ) ;
#60 = DIRECTION ( 'NONE',  ( -0.0000000000000000000, -0.0000000000000000000, -1.000000000000000000 ) ) ;
#61 = VECTOR ( 'NONE', #78, 1000.000000000000000 ) ;
#62 = APPROVAL_ROLE ( '' ) ;
#63 = CC_DESIGN_DATE_AND_TIME_ASSIGNMENT ( #116, #231, ( #30 ) ) ;
#64 = VECTOR ( 'NONE', #154, 1000.000000000000000 ) ;
#65 = CC_DESIGN_PERSON_AND_ORGANIZATION_ASSIGNMENT ( #84, #171, ( #82 ) ) ;
#66 =( NAMED_UNIT ( * ) SI_UNIT ( $, .STERADIAN. ) SOLID_ANGLE_UNIT ( ) );
#67 = CARTESIAN_POINT ( 'NONE',  ( 126.9999999999999100, 178.0000000000000300, 0.0000000000000000000 ) ) ;
#68 = ORIENTED_EDGE ( 'NONE', *, *, #174, .F. ) ;
#69 = CARTESIAN_POINT ( 'NONE',  ( -127.0000000000000900, 178.0000000000000300, 3.000000000000000000 ) ) ;
#70 = PERSON_AND_ORGANIZATION ( #46, #18 ) ;
#71 = PERSON_AND_ORGANIZATION_ROLE ( 'design_supplier' ) ;
#72 = PLANE ( 'NONE',  #194 ) ;
#73 = DIRECTION ( 'NONE',  ( -1.000000000000000000, -1.559302000878029000E-016, 0.0000000000000000000 ) ) ;
#74 = ORIENTED_EDGE ( 'NONE', *, *, #14, .F. ) ;
#75 = VECTOR ( 'NONE', #129, 1000.000000000000000 ) ;
#76 = CARTESIAN_POINT ( 'NONE',  ( -127.0000000000000300, -177.9999999999999700, 3.000000000000000000 ) ) ;
#77 = LINE ( 'NONE', #69, #75 ) ;
#78 = DIRECTION ( 'NONE',  ( 1.000000000000000000, 0.0000000000000000000, 0.0000000000000000000 ) ) ;
#79 = ORIENTED_EDGE ( 'NONE', *, *, #155, .T. ) ;
#80 = CARTESIAN_POINT ( 'NONE',  ( -127.0000000000000900, 178.0000000000000300, 3.000000000000000000 ) ) ;
#81 =( GEOMETRIC_REPRESENTATION_CONTEXT ( 3 ) GLOBAL_UNCERTAINTY_ASSIGNED_CONTEXT ( ( #35 ) ) GLOBAL_UNIT_ASSIGNED_CONTEXT ( ( #136, #86, #66 ) ) REPRESENTATION_CONTEXT ( 'NONE', 'WORKASPACE' ) );
#82 = PRODUCT ( 'Web Model 68268_68268', 'Web Model 68268_68268', '', ( #138 ) ) ;
#83 = PLANE ( 'NONE',  #153 ) ;
#84 = PERSON_AND_ORGANIZATION ( #46, #18 ) ;
#85 = LOCAL_TIME ( 12, 6, 52.00000000000000000, #49 ) ;
#86 =( NAMED_UNIT ( * ) PLANE_ANGLE_UNIT ( ) SI_UNIT ( $, .RADIAN. ) );
#87 = PERSON_AND_ORGANIZATION_ROLE ( 'creator' ) ;
#88 = LINE ( 'NONE', #162, #177 ) ;
#89 = DIRECTION ( 'NONE',  ( -1.000000000000000000, -0.0000000000000000000, -0.0000000000000000000 ) ) ;
#90 = DIRECTION ( 'NONE',  ( -1.559302000878029000E-016, 1.000000000000000000, -0.0000000000000000000 ) ) ;
#91 = AXIS2_PLACEMENT_3D ( 'NONE', #19, #169, #32 ) ;
#92 = ORIENTED_EDGE ( 'NONE', *, *, #106, .F. ) ;
#93 = PLANE ( 'NONE',  #94 ) ;
#94 = AXIS2_PLACEMENT_3D ( 'NONE', #184, #73, #25 ) ;
#95 = FACE_OUTER_BOUND ( 'NONE', #212, .T. ) ;
#96 = FACE_OUTER_BOUND ( 'NONE', #38, .T. ) ;
#97 = CARTESIAN_POINT ( 'NONE',  ( 126.9999999999999700, -177.9999999999999700, 0.0000000000000000000 ) ) ;
#98 = APPROVAL_STATUS ( 'not_yet_approved' ) ;
#99 = CARTESIAN_POINT ( 'NONE',  ( -127.0000000000000300, -177.9999999999999700, 3.000000000000000000 ) ) ;
#100 = CARTESIAN_POINT ( 'NONE',  ( -127.0000000000000900, 178.0000000000000300, 3.000000000000000000 ) ) ;
#101 = EDGE_CURVE ( 'NONE', #52, #4, #211, .T. ) ;
#102 = APPROVAL_STATUS ( 'not_yet_approved' ) ;
#103 = APPROVAL_PERSON_ORGANIZATION ( #22, #180, #43 ) ;
#104 = PERSON_AND_ORGANIZATION ( #46, #18 ) ;
#105 = COORDINATED_UNIVERSAL_TIME_OFFSET ( 5, 0, .BEHIND. ) ;
#106 = EDGE_CURVE ( 'NONE', #204, #205, #39, .T. ) ;
#107 = FACE_OUTER_BOUND ( 'NONE', #196, .T. ) ;
#108 = DESIGN_CONTEXT ( 'detailed design', #156, 'design' ) ;
#109 = PERSON_AND_ORGANIZATION ( #46, #18 ) ;
#110 = DIRECTION ( 'NONE',  ( -1.000000000000000000, -0.0000000000000000000, -0.0000000000000000000 ) ) ;
#111 = ORIENTED_EDGE ( 'NONE', *, *, #101, .T. ) ;
#112 = CARTESIAN_POINT ( 'NONE',  ( -127.0000000000000900, 178.0000000000000300, 0.0000000000000000000 ) ) ;
#113 = APPROVAL ( #102, 'UNSPECIFIED' ) ;
#114 = DIRECTION ( 'NONE',  ( 0.0000000000000000000, -0.0000000000000000000, 1.000000000000000000 ) ) ;
#115 = ORIENTED_EDGE ( 'NONE', *, *, #48, .T. ) ;
#116 = DATE_AND_TIME ( #235, #233 ) ;
#117 = DIRECTION ( 'NONE',  ( -0.0000000000000000000, -0.0000000000000000000, -1.000000000000000000 ) ) ;
#118 = APPLICATION_CONTEXT ( 'configuration controlled 3d designs of mechanical parts and assemblies' ) ;
#119 = APPROVAL_STATUS ( 'not_yet_approved' ) ;
#120 = DATE_AND_TIME ( #164, #85 ) ;
#121 = APPROVAL_DATE_TIME ( #148, #170 ) ;
#122 = VECTOR ( 'NONE', #219, 1000.000000000000000 ) ;
#123 = DATE_TIME_ROLE ( 'classification_date' ) ;
#124 = CARTESIAN_POINT ( 'NONE',  ( -127.0000000000000900, 178.0000000000000300, 0.0000000000000000000 ) ) ;
#125 = CC_DESIGN_APPROVAL ( #113, ( #187 ) ) ;
#126 = VECTOR ( 'NONE', #117, 1000.000000000000000 ) ;
#127 = CC_DESIGN_PERSON_AND_ORGANIZATION_ASSIGNMENT ( #104, #59, ( #187 ) ) ;
#128 = CC_DESIGN_PERSON_AND_ORGANIZATION_ASSIGNMENT ( #189, #71, ( #187 ) ) ;
#129 = DIRECTION ( 'NONE',  ( 1.559302000878029000E-016, -1.000000000000000000, 0.0000000000000000000 ) ) ;
#130 = DIRECTION ( 'NONE',  ( 1.000000000000000000, 0.0000000000000000000, 0.0000000000000000000 ) ) ;
#131 = EDGE_CURVE ( 'NONE', #52, #12, #179, .T. ) ;
#132 = APPROVAL_DATE_TIME ( #135, #180 ) ;
#133 = EDGE_CURVE ( 'NONE', #176, #12, #88, .T. ) ;
#134 = CARTESIAN_POINT ( 'NONE',  ( -127.0000000000000300, -177.9999999999999700, 0.0000000000000000000 ) ) ;
#135 = DATE_AND_TIME ( #206, #146 ) ;
#136 =( LENGTH_UNIT ( ) NAMED_UNIT ( * ) SI_UNIT ( .MILLI., .METRE. ) );
#137 = DIRECTION ( 'NONE',  ( -1.559302000878029000E-016, 1.000000000000000000, 0.0000000000000000000 ) ) ;
#138 = MECHANICAL_CONTEXT ( 'NONE', #118, 'mechanical' ) ;
#139 = CARTESIAN_POINT ( 'NONE',  ( -127.0000000000000300, -177.9999999999999700, 3.000000000000000000 ) ) ;
#140 = APPROVAL_ROLE ( '' ) ;
#141 = LOCAL_TIME ( 12, 6, 52.00000000000000000, #152 ) ;
#142 = FACE_OUTER_BOUND ( 'NONE', #13, .T. ) ;
#143 = ADVANCED_FACE ( 'NONE', ( #95 ), #34, .T. ) ;
#144 = CALENDAR_DATE ( 2017, 12, 4 ) ;
#145 = ORIENTED_EDGE ( 'NONE', *, *, #131, .T. ) ;
#146 = LOCAL_TIME ( 12, 6, 52.00000000000000000, #105 ) ;
#147 = LINE ( 'NONE', #193, #61 ) ;
#148 = DATE_AND_TIME ( #144, #141 ) ;
#149 = VECTOR ( 'NONE', #89, 1000.000000000000000 ) ;
#150 = ORIENTED_EDGE ( 'NONE', *, *, #48, .F. ) ;
#151 = COORDINATED_UNIVERSAL_TIME_OFFSET ( 5, 0, .BEHIND. ) ;
#152 = COORDINATED_UNIVERSAL_TIME_OFFSET ( 5, 0, .BEHIND. ) ;
#153 = AXIS2_PLACEMENT_3D ( 'NONE', #27, #207, #137 ) ;
#154 = DIRECTION ( 'NONE',  ( -0.0000000000000000000, -0.0000000000000000000, -1.000000000000000000 ) ) ;
#155 = EDGE_CURVE ( 'NONE', #4, #218, #202, .T. ) ;
#156 = APPLICATION_CONTEXT ( 'configuration controlled 3d designs of mechanical parts and assemblies' ) ;
#157 = ORIENTED_EDGE ( 'NONE', *, *, #222, .T. ) ;
#158 = APPLICATION_PROTOCOL_DEFINITION ( 'international standard', 'config_control_design', 1994, #156 ) ;
#159 = CARTESIAN_POINT ( 'NONE',  ( -127.0000000000000900, 178.0000000000000300, 3.000000000000000000 ) ) ;
#160 = PERSON_AND_ORGANIZATION_ROLE ( 'classification_officer' ) ;
#161 = CC_DESIGN_APPROVAL ( #170, ( #30 ) ) ;
#162 = CARTESIAN_POINT ( 'NONE',  ( -127.0000000000000900, 178.0000000000000300, 0.0000000000000000000 ) ) ;
#163 = APPROVAL_PERSON_ORGANIZATION ( #109, #170, #62 ) ;
#164 = CALENDAR_DATE ( 2017, 12, 4 ) ;
#165 = EDGE_CURVE ( 'NONE', #225, #176, #192, .T. ) ;
#166 = SECURITY_CLASSIFICATION ( '', '', #185 ) ;
#167 = ORIENTED_EDGE ( 'NONE', *, *, #165, .F. ) ;
#168 = AXIS2_PLACEMENT_3D ( 'NONE', #40, #54, #175 ) ;
#169 = DIRECTION ( 'NONE',  ( -0.0000000000000000000, 0.0000000000000000000, 1.000000000000000000 ) ) ;
#170 = APPROVAL ( #98, 'UNSPECIFIED' ) ;
#171 = PERSON_AND_ORGANIZATION_ROLE ( 'design_owner' ) ;
#172 = DIRECTION ( 'NONE',  ( -0.0000000000000000000, 0.0000000000000000000, 1.000000000000000000 ) ) ;
#173 = PERSON_AND_ORGANIZATION ( #46, #18 ) ;
#174 = EDGE_CURVE ( 'NONE', #225, #52, #77, .T. ) ;
#175 = DIRECTION ( 'NONE',  ( 0.0000000000000000000, -0.0000000000000000000, -1.000000000000000000 ) ) ;
#176 = VERTEX_POINT ( 'NONE', #124 ) ;
#177 = VECTOR ( 'NONE', #178, 1000.000000000000000 ) ;
#178 = DIRECTION ( 'NONE',  ( 1.559302000878029000E-016, -1.000000000000000000, 0.0000000000000000000 ) ) ;
#179 = LINE ( 'NONE', #99, #31 ) ;
#180 = APPROVAL ( #119, 'UNSPECIFIED' ) ;
#181 = LINE ( 'NONE', #182, #64 ) ;
#182 = CARTESIAN_POINT ( 'NONE',  ( 126.9999999999999100, 178.0000000000000300, 3.000000000000000000 ) ) ;
#183 = DIRECTION ( 'NONE',  ( -0.0000000000000000000, -0.0000000000000000000, -1.000000000000000000 ) ) ;
#184 = CARTESIAN_POINT ( 'NONE',  ( 126.9999999999999100, 178.0000000000000300, 3.000000000000000000 ) ) ;
#185 = SECURITY_CLASSIFICATION_LEVEL ( 'unclassified' ) ;
#186 = CALENDAR_DATE ( 2017, 12, 4 ) ;
#187 = PRODUCT_DEFINITION_FORMATION_WITH_SPECIFIED_SOURCE ( 'ANY', '', #82, .NOT_KNOWN. ) ;
#188 = VECTOR ( 'NONE', #110, 1000.000000000000000 ) ;
#189 = PERSON_AND_ORGANIZATION ( #46, #18 ) ;
#190 = PLANE ( 'NONE',  #24 ) ;
#191 = APPROVAL_DATE_TIME ( #50, #113 ) ;
#192 = LINE ( 'NONE', #80, #126 ) ;
#193 = CARTESIAN_POINT ( 'NONE',  ( -127.0000000000000300, -177.9999999999999700, 0.0000000000000000000 ) ) ;
#194 = AXIS2_PLACEMENT_3D ( 'NONE', #10, #172, #130 ) ;
#195 = CARTESIAN_POINT ( 'NONE',  ( 126.9999999999999100, 178.0000000000000300, 3.000000000000000000 ) ) ;
#196 = EDGE_LOOP ( 'NONE', ( #201, #11, #68, #56 ) ) ;
#197 = MANIFOLD_SOLID_BREP ( 'Extrude1', #217 ) ;
#198 = ORIENTED_EDGE ( 'NONE', *, *, #215, .F. ) ;
#199 = ORIENTED_EDGE ( 'NONE', *, *, #101, .F. ) ;
#200 = EDGE_CURVE ( 'NONE', #12, #204, #147, .T. ) ;
#201 = ORIENTED_EDGE ( 'NONE', *, *, #133, .T. ) ;
#202 = LINE ( 'NONE', #8, #20 ) ;
#203 = CC_DESIGN_APPROVAL ( #180, ( #166 ) ) ;
#204 = VERTEX_POINT ( 'NONE', #97 ) ;
#205 = VERTEX_POINT ( 'NONE', #67 ) ;
#206 = CALENDAR_DATE ( 2017, 12, 4 ) ;
#207 = DIRECTION ( 'NONE',  ( 1.000000000000000000, 1.559302000878029000E-016, -0.0000000000000000000 ) ) ;
#208 = FACE_OUTER_BOUND ( 'NONE', #237, .T. ) ;
#209 = LOCAL_TIME ( 12, 6, 52.00000000000000000, #55 ) ;
#210 = CARTESIAN_POINT ( 'NONE',  ( 126.9999999999999100, 178.0000000000000300, 0.0000000000000000000 ) ) ;
#211 = LINE ( 'NONE', #58, #122 ) ;
#212 = EDGE_LOOP ( 'NONE', ( #45, #111, #79, #115 ) ) ;
#213 = ADVANCED_FACE ( 'NONE', ( #107 ), #83, .F. ) ;
#214 = VECTOR ( 'NONE', #183, 1000.000000000000000 ) ;
#215 = EDGE_CURVE ( 'NONE', #4, #204, #47, .T. ) ;
#216 = AXIS2_PLACEMENT_3D ( 'NONE', #230, #28, #224 ) ;
#217 = CLOSED_SHELL ( 'NONE', ( #213, #9, #29, #36, #143, #6 ) ) ;
#218 = VERTEX_POINT ( 'NONE', #195 ) ;
#219 = DIRECTION ( 'NONE',  ( 1.000000000000000000, 0.0000000000000000000, 0.0000000000000000000 ) ) ;
#220 = ORIENTED_EDGE ( 'NONE', *, *, #200, .F. ) ;
#221 = CC_DESIGN_SECURITY_CLASSIFICATION ( #166, ( #187 ) ) ;
#222 = EDGE_CURVE ( 'NONE', #218, #205, #181, .T. ) ;
#223 = FACE_OUTER_BOUND ( 'NONE', #21, .T. ) ;
#224 = DIRECTION ( 'NONE',  ( 1.000000000000000000, 0.0000000000000000000, 0.0000000000000000000 ) ) ;
#225 = VERTEX_POINT ( 'NONE', #159 ) ;
#226 = LINE ( 'NONE', #112, #149 ) ;
#227 = CC_DESIGN_DATE_AND_TIME_ASSIGNMENT ( #120, #123, ( #166 ) ) ;
#228 = PRODUCT_DEFINITION_SHAPE ( 'NONE', 'NONE',  #30 ) ;
#229 = ADVANCED_BREP_SHAPE_REPRESENTATION ( 'Web Model 68268_68268', ( #197, #216 ), #81 ) ;
#230 = CARTESIAN_POINT ( 'NONE',  ( 0.0000000000000000000, 0.0000000000000000000, 0.0000000000000000000 ) ) ;
#231 = DATE_TIME_ROLE ( 'creation_date' ) ;
#232 = LINE ( 'NONE', #100, #188 ) ;
#233 = LOCAL_TIME ( 12, 6, 52.00000000000000000, #151 ) ;
#234 = PRODUCT_RELATED_PRODUCT_CATEGORY ( 'detail', '', ( #82 ) ) ;
#235 = CALENDAR_DATE ( 2017, 12, 4 ) ;
#236 = APPLICATION_PROTOCOL_DEFINITION ( 'international standard', 'config_control_design', 1994, #118 ) ;
#237 = EDGE_LOOP ( 'NONE', ( #17, #198, #199, #145 ) ) ;
ENDSEC;
END-ISO-10303-21;
