ISO-10303-21;
HEADER;
FILE_DESCRIPTION (( 'STEP AP203' ),
    '1' );
FILE_NAME ('Web Model 12666_12666.step',
    '2019-04-09T18:54:05',
    ( '' ),
    ( '' ),
    'SwSTEP 2.0',
    'SolidWorks 2018',
    '' );
FILE_SCHEMA (( 'CONFIG_CONTROL_DESIGN' ));
ENDSEC;

DATA;
#1 = APPROVAL ( #172, 'UNSPECIFIED' ) ;
#2 = VERTEX_POINT ( 'NONE', #48 ) ;
#3 = EDGE_CURVE ( 'NONE', #205, #140, #152, .T. ) ;
#4 = CARTESIAN_POINT ( 'NONE',  ( -4.000000000000000000, 3.999999999999999112, -0.2500000000000000000 ) ) ;
#5 = CC_DESIGN_PERSON_AND_ORGANIZATION_ASSIGNMENT ( #46, #31, ( #227 ) ) ;
#6 = ORIENTED_EDGE ( 'NONE', *, *, #125, .T. ) ;
#7 = DIRECTION ( 'NONE',  ( -1.000000000000000000, 0.0000000000000000000, 0.0000000000000000000 ) ) ;
#8 = DIRECTION ( 'NONE',  ( 1.000000000000000000, 1.084202172485504434E-16, -0.0000000000000000000 ) ) ;
#9 = CARTESIAN_POINT ( 'NONE',  ( 4.000000000000000000, -4.000000000000000000, 0.2500000000000000000 ) ) ;
#10 = VECTOR ( 'NONE', #8, 1000.000000000000000 ) ;
#11 = VERTEX_POINT ( 'NONE', #200 ) ;
#12 = DIRECTION ( 'NONE',  ( 0.0000000000000000000, 0.0000000000000000000, 1.000000000000000000 ) ) ;
#13 = AXIS2_PLACEMENT_3D ( 'NONE', #132, #66, #67 ) ;
#14 = DIRECTION ( 'NONE',  ( 0.0000000000000000000, 1.000000000000000000, 0.0000000000000000000 ) ) ;
#15 =( LENGTH_UNIT ( ) NAMED_UNIT ( * ) SI_UNIT ( .MILLI., .METRE. ) );
#16 = APPLICATION_PROTOCOL_DEFINITION ( 'international standard', 'config_control_design', 1994, #138 ) ;
#17 = PRODUCT_DEFINITION_FORMATION_WITH_SPECIFIED_SOURCE ( 'ANY', '', #227, .NOT_KNOWN. ) ;
#18 = ORIENTED_EDGE ( 'NONE', *, *, #49, .F. ) ;
#19 = DATE_AND_TIME ( #112, #45 ) ;
#20 = VECTOR ( 'NONE', #130, 1000.000000000000000 ) ;
#21 = ORIENTED_EDGE ( 'NONE', *, *, #188, .F. ) ;
#22 = AXIS2_PLACEMENT_3D ( 'NONE', #118, #204, #133 ) ;
#23 = CALENDAR_DATE ( 2019, 9, 4 ) ;
#24 = CARTESIAN_POINT ( 'NONE',  ( 4.000000000000000000, -4.000000000000000000, 0.2500000000000000000 ) ) ;
#25 = CARTESIAN_POINT ( 'NONE',  ( 4.000000000000000000, 4.000000000000000000, 0.2500000000000000000 ) ) ;
#26 = ORIENTED_EDGE ( 'NONE', *, *, #3, .T. ) ;
#27 = APPROVAL_ROLE ( '' ) ;
#28 = CARTESIAN_POINT ( 'NONE',  ( -4.000000000000000000, -4.000000000000000888, 0.2500000000000000000 ) ) ;
#29 = ADVANCED_FACE ( 'NONE', ( #55 ), #81, .T. ) ;
#30 = LINE ( 'NONE', #121, #103 ) ;
#31 = PERSON_AND_ORGANIZATION_ROLE ( 'design_owner' ) ;
#32 = DIRECTION ( 'NONE',  ( 1.000000000000000000, 0.0000000000000000000, 0.0000000000000000000 ) ) ;
#33 = CARTESIAN_POINT ( 'NONE',  ( 4.000000000000000000, -4.000000000000000000, 0.2500000000000000000 ) ) ;
#34 = ORIENTED_EDGE ( 'NONE', *, *, #214, .T. ) ;
#35 = EDGE_CURVE ( 'NONE', #205, #104, #62, .T. ) ;
#36 = APPROVAL_PERSON_ORGANIZATION ( #99, #216, #54 ) ;
#37 = CC_DESIGN_APPROVAL ( #1, ( #134 ) ) ;
#38 = ORIENTED_EDGE ( 'NONE', *, *, #49, .T. ) ;
#39 = EDGE_CURVE ( 'NONE', #230, #60, #164, .T. ) ;
#40 = CALENDAR_DATE ( 2019, 9, 4 ) ;
#41 = LOCAL_TIME ( 14, 54, 5.000000000000000000, #91 ) ;
#42 = ORIENTED_EDGE ( 'NONE', *, *, #203, .F. ) ;
#43 = COORDINATED_UNIVERSAL_TIME_OFFSET ( 5, 0, .BEHIND. ) ;
#44 = ORIENTED_EDGE ( 'NONE', *, *, #198, .F. ) ;
#45 = LOCAL_TIME ( 14, 54, 5.000000000000000000, #43 ) ;
#46 = PERSON_AND_ORGANIZATION ( #171, #94 ) ;
#47 = CARTESIAN_POINT ( 'NONE',  ( 4.000000000000000000, -4.000000000000000000, -0.2500000000000000000 ) ) ;
#48 = CARTESIAN_POINT ( 'NONE',  ( 4.000000000000000000, 4.000000000000000000, -0.2500000000000000000 ) ) ;
#49 = EDGE_CURVE ( 'NONE', #60, #140, #71, .T. ) ;
#50 = APPROVAL_DATE_TIME ( #92, #216 ) ;
#51 = DIRECTION ( 'NONE',  ( 1.084202172485504434E-16, -1.000000000000000000, 0.0000000000000000000 ) ) ;
#52 = ORIENTED_EDGE ( 'NONE', *, *, #93, .F. ) ;
#53 = CC_DESIGN_DATE_AND_TIME_ASSIGNMENT ( #59, #69, ( #134 ) ) ;
#54 = APPROVAL_ROLE ( '' ) ;
#55 = FACE_OUTER_BOUND ( 'NONE', #58, .T. ) ;
#56 = DIRECTION ( 'NONE',  ( -1.000000000000000000, -1.084202172485504434E-16, 0.0000000000000000000 ) ) ;
#57 = CC_DESIGN_SECURITY_CLASSIFICATION ( #155, ( #17 ) ) ;
#58 = EDGE_LOOP ( 'NONE', ( #127, #197, #97, #114 ) ) ;
#59 = DATE_AND_TIME ( #237, #156 ) ;
#60 = VERTEX_POINT ( 'NONE', #76 ) ;
#61 = AXIS2_PLACEMENT_3D ( 'NONE', #228, #51, #86 ) ;
#62 = LINE ( 'NONE', #98, #113 ) ;
#63 = AXIS2_PLACEMENT_3D ( 'NONE', #162, #161, #221 ) ;
#64 = APPROVAL_PERSON_ORGANIZATION ( #79, #199, #27 ) ;
#65 = LINE ( 'NONE', #170, #218 ) ;
#66 = DIRECTION ( 'NONE',  ( 0.0000000000000000000, -0.0000000000000000000, 1.000000000000000000 ) ) ;
#67 = DIRECTION ( 'NONE',  ( 1.000000000000000000, 0.0000000000000000000, -0.0000000000000000000 ) ) ;
#68 = COORDINATED_UNIVERSAL_TIME_OFFSET ( 5, 0, .BEHIND. ) ;
#69 = DATE_TIME_ROLE ( 'creation_date' ) ;
#70 = ADVANCED_FACE ( 'NONE', ( #192 ), #116, .F. ) ;
#71 = LINE ( 'NONE', #47, #10 ) ;
#72 = VECTOR ( 'NONE', #14, 1000.000000000000000 ) ;
#73 = LINE ( 'NONE', #84, #194 ) ;
#74 = CLOSED_SHELL ( 'NONE', ( #173, #120, #70, #212, #29, #106 ) ) ;
#75 = PERSON_AND_ORGANIZATION ( #171, #94 ) ;
#76 = CARTESIAN_POINT ( 'NONE',  ( -4.000000000000000000, -4.000000000000000888, -0.2500000000000000000 ) ) ;
#77 = CARTESIAN_POINT ( 'NONE',  ( 4.000000000000000000, 4.000000000000000000, -0.2500000000000000000 ) ) ;
#78 = DIRECTION ( 'NONE',  ( 0.0000000000000000000, 1.000000000000000000, 0.0000000000000000000 ) ) ;
#79 = PERSON_AND_ORGANIZATION ( #171, #94 ) ;
#80 = LINE ( 'NONE', #209, #196 ) ;
#81 = PLANE ( 'NONE',  #63 ) ;
#82 = CC_DESIGN_PERSON_AND_ORGANIZATION_ASSIGNMENT ( #186, #100, ( #134 ) ) ;
#83 = EDGE_LOOP ( 'NONE', ( #38, #149, #42, #145 ) ) ;
#84 = CARTESIAN_POINT ( 'NONE',  ( -4.000000000000000000, 3.999999999999999112, 0.2500000000000000000 ) ) ;
#85 = APPROVAL_STATUS ( 'not_yet_approved' ) ;
#86 = DIRECTION ( 'NONE',  ( 1.000000000000000000, 1.084202172485504434E-16, 0.0000000000000000000 ) ) ;
#87 = ORIENTED_EDGE ( 'NONE', *, *, #236, .F. ) ;
#88 = DIRECTION ( 'NONE',  ( 0.0000000000000000000, 0.0000000000000000000, -1.000000000000000000 ) ) ;
#89 = CARTESIAN_POINT ( 'NONE',  ( 4.000000000000000000, -4.000000000000000000, -0.2500000000000000000 ) ) ;
#90 = APPROVAL_DATE_TIME ( #217, #1 ) ;
#91 = COORDINATED_UNIVERSAL_TIME_OFFSET ( 5, 0, .BEHIND. ) ;
#92 = DATE_AND_TIME ( #40, #223 ) ;
#93 = EDGE_CURVE ( 'NONE', #104, #2, #150, .T. ) ;
#94 = ORGANIZATION ( 'UNSPECIFIED', 'UNSPECIFIED', '' ) ;
#95 = ORIENTED_EDGE ( 'NONE', *, *, #93, .T. ) ;
#96 = LINE ( 'NONE', #89, #72 ) ;
#97 = ORIENTED_EDGE ( 'NONE', *, *, #35, .T. ) ;
#98 = CARTESIAN_POINT ( 'NONE',  ( 4.000000000000000000, -4.000000000000000000, 0.2500000000000000000 ) ) ;
#99 = PERSON_AND_ORGANIZATION ( #171, #94 ) ;
#100 = PERSON_AND_ORGANIZATION_ROLE ( 'creator' ) ;
#101 = DIRECTION ( 'NONE',  ( -1.000000000000000000, -1.084202172485504434E-16, 0.0000000000000000000 ) ) ;
#102 =( NAMED_UNIT ( * ) PLANE_ANGLE_UNIT ( ) SI_UNIT ( $, .RADIAN. ) );
#103 = VECTOR ( 'NONE', #210, 1000.000000000000000 ) ;
#104 = VERTEX_POINT ( 'NONE', #25 ) ;
#105 = PLANE ( 'NONE',  #61 ) ;
#106 = ADVANCED_FACE ( 'NONE', ( #215 ), #225, .F. ) ;
#107 = PRODUCT_RELATED_PRODUCT_CATEGORY ( 'detail', '', ( #227 ) ) ;
#108 = VECTOR ( 'NONE', #56, 1000.000000000000000 ) ;
#109 = VECTOR ( 'NONE', #226, 1000.000000000000000 ) ;
#110 = AXIS2_PLACEMENT_3D ( 'NONE', #28, #32, #88 ) ;
#111 = ADVANCED_BREP_SHAPE_REPRESENTATION ( 'Web Model 12666_12666', ( #208, #119 ), #201 ) ;
#112 = CALENDAR_DATE ( 2019, 9, 4 ) ;
#113 = VECTOR ( 'NONE', #78, 1000.000000000000000 ) ;
#114 = ORIENTED_EDGE ( 'NONE', *, *, #198, .T. ) ;
#115 = APPROVAL_DATE_TIME ( #144, #199 ) ;
#116 = PLANE ( 'NONE',  #229 ) ;
#117 = VECTOR ( 'NONE', #184, 1000.000000000000000 ) ;
#118 = CARTESIAN_POINT ( 'NONE',  ( 4.000000000000000000, -4.000000000000000000, 0.2500000000000000000 ) ) ;
#119 = AXIS2_PLACEMENT_3D ( 'NONE', #232, #12, #233 ) ;
#120 = ADVANCED_FACE ( 'NONE', ( #202 ), #180, .F. ) ;
#121 = CARTESIAN_POINT ( 'NONE',  ( -4.000000000000000000, -4.000000000000000888, -0.2500000000000000000 ) ) ;
#122 =( NAMED_UNIT ( * ) SI_UNIT ( $, .STERADIAN. ) SOLID_ANGLE_UNIT ( ) );
#123 = ORIENTED_EDGE ( 'NONE', *, *, #125, .F. ) ;
#124 = LINE ( 'NONE', #77, #108 ) ;
#125 = EDGE_CURVE ( 'NONE', #11, #165, #73, .T. ) ;
#126 = CALENDAR_DATE ( 2019, 9, 4 ) ;
#127 = ORIENTED_EDGE ( 'NONE', *, *, #188, .T. ) ;
#128 = CC_DESIGN_APPROVAL ( #216, ( #17 ) ) ;
#129 = APPROVAL_PERSON_ORGANIZATION ( #234, #1, #153 ) ;
#130 = DIRECTION ( 'NONE',  ( -0.0000000000000000000, -0.0000000000000000000, -1.000000000000000000 ) ) ;
#131 = EDGE_LOOP ( 'NONE', ( #34, #175, #21, #6 ) ) ;
#132 = CARTESIAN_POINT ( 'NONE',  ( 0.0000000000000000000, 0.0000000000000000000, -0.2500000000000000000 ) ) ;
#133 = DIRECTION ( 'NONE',  ( -1.000000000000000000, -1.084202172485504434E-16, 0.0000000000000000000 ) ) ;
#134 = PRODUCT_DEFINITION ( 'UNKNOWN', '', #17, #183 ) ;
#135 = COORDINATED_UNIVERSAL_TIME_OFFSET ( 5, 0, .BEHIND. ) ;
#136 = EDGE_LOOP ( 'NONE', ( #178, #123, #44, #95 ) ) ;
#137 = APPLICATION_CONTEXT ( 'configuration controlled 3d designs of mechanical parts and assemblies' ) ;
#138 = APPLICATION_CONTEXT ( 'configuration controlled 3d designs of mechanical parts and assemblies' ) ;
#139 = DIRECTION ( 'NONE',  ( 1.000000000000000000, 1.084202172485504434E-16, -0.0000000000000000000 ) ) ;
#140 = VERTEX_POINT ( 'NONE', #151 ) ;
#141 = UNCERTAINTY_MEASURE_WITH_UNIT (LENGTH_MEASURE( 1.000000000000000082E-05 ), #15, 'distance_accuracy_value', 'NONE');
#142 = CC_DESIGN_PERSON_AND_ORGANIZATION_ASSIGNMENT ( #220, #187, ( #17 ) ) ;
#143 = SHAPE_DEFINITION_REPRESENTATION ( #158, #111 ) ;
#144 = DATE_AND_TIME ( #23, #181 ) ;
#145 = ORIENTED_EDGE ( 'NONE', *, *, #39, .T. ) ;
#146 = CC_DESIGN_PERSON_AND_ORGANIZATION_ASSIGNMENT ( #75, #167, ( #17 ) ) ;
#147 = EDGE_CURVE ( 'NONE', #2, #165, #124, .T. ) ;
#148 = CARTESIAN_POINT ( 'NONE',  ( -4.000000000000000000, -4.000000000000000888, 0.2500000000000000000 ) ) ;
#149 = ORIENTED_EDGE ( 'NONE', *, *, #3, .F. ) ;
#150 = LINE ( 'NONE', #179, #117 ) ;
#151 = CARTESIAN_POINT ( 'NONE',  ( 4.000000000000000000, -4.000000000000000000, -0.2500000000000000000 ) ) ;
#152 = LINE ( 'NONE', #24, #109 ) ;
#153 = APPROVAL_ROLE ( '' ) ;
#154 = APPROVAL_STATUS ( 'not_yet_approved' ) ;
#155 = SECURITY_CLASSIFICATION ( '', '', #191 ) ;
#156 = LOCAL_TIME ( 14, 54, 5.000000000000000000, #135 ) ;
#157 = DATE_TIME_ROLE ( 'classification_date' ) ;
#158 = PRODUCT_DEFINITION_SHAPE ( 'NONE', 'NONE',  #134 ) ;
#159 = LINE ( 'NONE', #148, #224 ) ;
#160 = FACE_OUTER_BOUND ( 'NONE', #136, .T. ) ;
#161 = DIRECTION ( 'NONE',  ( 0.0000000000000000000, -0.0000000000000000000, 1.000000000000000000 ) ) ;
#162 = CARTESIAN_POINT ( 'NONE',  ( 0.0000000000000000000, 0.0000000000000000000, 0.2500000000000000000 ) ) ;
#163 = COORDINATED_UNIVERSAL_TIME_OFFSET ( 5, 0, .BEHIND. ) ;
#164 = LINE ( 'NONE', #222, #20 ) ;
#165 = VERTEX_POINT ( 'NONE', #4 ) ;
#166 = DIRECTION ( 'NONE',  ( -0.0000000000000000000, -0.0000000000000000000, -1.000000000000000000 ) ) ;
#167 = PERSON_AND_ORGANIZATION_ROLE ( 'creator' ) ;
#168 = PLANE ( 'NONE',  #110 ) ;
#169 = FACE_OUTER_BOUND ( 'NONE', #131, .T. ) ;
#170 = CARTESIAN_POINT ( 'NONE',  ( 4.000000000000000000, -4.000000000000000000, 0.2500000000000000000 ) ) ;
#171 = PERSON ( 'UNSPECIFIED', 'UNSPECIFIED', 'UNSPECIFIED', ('UNSPECIFIED'), ('UNSPECIFIED'), ('UNSPECIFIED') ) ;
#172 = APPROVAL_STATUS ( 'not_yet_approved' ) ;
#173 = ADVANCED_FACE ( 'NONE', ( #169 ), #168, .F. ) ;
#174 = PERSON_AND_ORGANIZATION ( #171, #94 ) ;
#175 = ORIENTED_EDGE ( 'NONE', *, *, #39, .F. ) ;
#176 = CC_DESIGN_DATE_AND_TIME_ASSIGNMENT ( #19, #157, ( #155 ) ) ;
#177 = EDGE_LOOP ( 'NONE', ( #219, #52, #193, #26 ) ) ;
#178 = ORIENTED_EDGE ( 'NONE', *, *, #147, .T. ) ;
#179 = CARTESIAN_POINT ( 'NONE',  ( 4.000000000000000000, 4.000000000000000000, 0.2500000000000000000 ) ) ;
#180 = PLANE ( 'NONE',  #22 ) ;
#181 = LOCAL_TIME ( 14, 54, 5.000000000000000000, #68 ) ;
#182 = ORIENTED_EDGE ( 'NONE', *, *, #147, .F. ) ;
#183 = DESIGN_CONTEXT ( 'detailed design', #138, 'design' ) ;
#184 = DIRECTION ( 'NONE',  ( -0.0000000000000000000, -0.0000000000000000000, -1.000000000000000000 ) ) ;
#185 = DIRECTION ( 'NONE',  ( 0.0000000000000000000, 0.0000000000000000000, 1.000000000000000000 ) ) ;
#186 = PERSON_AND_ORGANIZATION ( #171, #94 ) ;
#187 = PERSON_AND_ORGANIZATION_ROLE ( 'design_supplier' ) ;
#188 = EDGE_CURVE ( 'NONE', #11, #230, #159, .T. ) ;
#189 = MECHANICAL_CONTEXT ( 'NONE', #137, 'mechanical' ) ;
#190 = PERSON_AND_ORGANIZATION_ROLE ( 'classification_officer' ) ;
#191 = SECURITY_CLASSIFICATION_LEVEL ( 'unclassified' ) ;
#192 = FACE_OUTER_BOUND ( 'NONE', #177, .T. ) ;
#193 = ORIENTED_EDGE ( 'NONE', *, *, #35, .F. ) ;
#194 = VECTOR ( 'NONE', #166, 1000.000000000000000 ) ;
#195 = CC_DESIGN_APPROVAL ( #199, ( #155 ) ) ;
#196 = VECTOR ( 'NONE', #101, 1000.000000000000000 ) ;
#197 = ORIENTED_EDGE ( 'NONE', *, *, #203, .T. ) ;
#198 = EDGE_CURVE ( 'NONE', #104, #11, #80, .T. ) ;
#199 = APPROVAL ( #85, 'UNSPECIFIED' ) ;
#200 = CARTESIAN_POINT ( 'NONE',  ( -4.000000000000000000, 3.999999999999999112, 0.2500000000000000000 ) ) ;
#201 =( GEOMETRIC_REPRESENTATION_CONTEXT ( 3 ) GLOBAL_UNCERTAINTY_ASSIGNED_CONTEXT ( ( #141 ) ) GLOBAL_UNIT_ASSIGNED_CONTEXT ( ( #15, #102, #122 ) ) REPRESENTATION_CONTEXT ( 'NONE', 'WORKASPACE' ) );
#202 = FACE_OUTER_BOUND ( 'NONE', #83, .T. ) ;
#203 = EDGE_CURVE ( 'NONE', #230, #205, #65, .T. ) ;
#204 = DIRECTION ( 'NONE',  ( -1.084202172485504434E-16, 1.000000000000000000, 0.0000000000000000000 ) ) ;
#205 = VERTEX_POINT ( 'NONE', #33 ) ;
#206 = APPLICATION_PROTOCOL_DEFINITION ( 'international standard', 'config_control_design', 1994, #137 ) ;
#207 = CC_DESIGN_PERSON_AND_ORGANIZATION_ASSIGNMENT ( #174, #190, ( #155 ) ) ;
#208 = MANIFOLD_SOLID_BREP ( 'Boss-Extrude1', #74 ) ;
#209 = CARTESIAN_POINT ( 'NONE',  ( 4.000000000000000000, 4.000000000000000000, 0.2500000000000000000 ) ) ;
#210 = DIRECTION ( 'NONE',  ( -0.0000000000000000000, -1.000000000000000000, -0.0000000000000000000 ) ) ;
#211 = DIRECTION ( 'NONE',  ( -0.0000000000000000000, -1.000000000000000000, -0.0000000000000000000 ) ) ;
#212 = ADVANCED_FACE ( 'NONE', ( #160 ), #105, .F. ) ;
#213 = ORIENTED_EDGE ( 'NONE', *, *, #214, .F. ) ;
#214 = EDGE_CURVE ( 'NONE', #165, #60, #30, .T. ) ;
#215 = FACE_OUTER_BOUND ( 'NONE', #235, .T. ) ;
#216 = APPROVAL ( #154, 'UNSPECIFIED' ) ;
#217 = DATE_AND_TIME ( #126, #41 ) ;
#218 = VECTOR ( 'NONE', #139, 1000.000000000000000 ) ;
#219 = ORIENTED_EDGE ( 'NONE', *, *, #236, .T. ) ;
#220 = PERSON_AND_ORGANIZATION ( #171, #94 ) ;
#221 = DIRECTION ( 'NONE',  ( 1.000000000000000000, 0.0000000000000000000, -0.0000000000000000000 ) ) ;
#222 = CARTESIAN_POINT ( 'NONE',  ( -4.000000000000000000, -4.000000000000000888, 0.2500000000000000000 ) ) ;
#223 = LOCAL_TIME ( 14, 54, 5.000000000000000000, #163 ) ;
#224 = VECTOR ( 'NONE', #211, 1000.000000000000000 ) ;
#225 = PLANE ( 'NONE',  #13 ) ;
#226 = DIRECTION ( 'NONE',  ( -0.0000000000000000000, -0.0000000000000000000, -1.000000000000000000 ) ) ;
#227 = PRODUCT ( 'Web Model 12666_12666', 'Web Model 12666_12666', '', ( #189 ) ) ;
#228 = CARTESIAN_POINT ( 'NONE',  ( 4.000000000000000000, 4.000000000000000000, 0.2500000000000000000 ) ) ;
#229 = AXIS2_PLACEMENT_3D ( 'NONE', #9, #7, #185 ) ;
#230 = VERTEX_POINT ( 'NONE', #231 ) ;
#231 = CARTESIAN_POINT ( 'NONE',  ( -4.000000000000000000, -4.000000000000000888, 0.2500000000000000000 ) ) ;
#232 = CARTESIAN_POINT ( 'NONE',  ( 0.0000000000000000000, 0.0000000000000000000, 0.0000000000000000000 ) ) ;
#233 = DIRECTION ( 'NONE',  ( 1.000000000000000000, 0.0000000000000000000, 0.0000000000000000000 ) ) ;
#234 = PERSON_AND_ORGANIZATION ( #171, #94 ) ;
#235 = EDGE_LOOP ( 'NONE', ( #213, #182, #87, #18 ) ) ;
#236 = EDGE_CURVE ( 'NONE', #140, #2, #96, .T. ) ;
#237 = CALENDAR_DATE ( 2019, 9, 4 ) ;
ENDSEC;
END-ISO-10303-21;
