ISO-10303-21;
HEADER;
FILE_DESCRIPTION (( 'STEP AP203' ),
    '1' );
FILE_NAME ('21998-E0W.STEP',
    '2018-06-01T18:11:56',
    ( 'admin' ),
    ( '' ),
    'SwSTEP 2.0',
    'SolidWorks 2016',
    '' );
FILE_SCHEMA (( 'CONFIG_CONTROL_DESIGN' ));
ENDSEC;

DATA;
#1 = DATE_AND_TIME ( #119, #89 ) ;
#2 = ORIENTED_EDGE ( 'NONE', *, *, #298, .F. ) ;
#3 = VERTEX_POINT ( 'NONE', #61 ) ;
#4 = ORIENTED_EDGE ( 'NONE', *, *, #315, .T. ) ;
#5 = CARTESIAN_POINT ( 'NONE',  ( 0.0000000000000000000, 6.829619984160658000E-017, 11.92858157394900000 ) ) ;
#6 = AXIS2_PLACEMENT_3D ( 'NONE', #263, #153, #194 ) ;
#7 = DIRECTION ( 'NONE',  ( 0.0000000000000000000, 0.7071067811865475700, -0.7071067811865474600 ) ) ;
#8 = EDGE_LOOP ( 'NONE', ( #172, #289, #131, #306 ) ) ;
#9 = VERTEX_POINT ( 'NONE', #312 ) ;
#10 = ORIENTED_EDGE ( 'NONE', *, *, #307, .F. ) ;
#11 = MANIFOLD_SOLID_BREP ( '21998-001-1-solid1', #37 ) ;
#12 = CARTESIAN_POINT ( 'NONE',  ( 0.0000000000000000000, 0.5000000000000001100, 0.1955445885838015300 ) ) ;
#13 = CC_DESIGN_APPROVAL ( #324, ( #281 ) ) ;
#14 = DIRECTION ( 'NONE',  ( 0.0000000000000000000, 0.0000000000000000000, 1.000000000000000000 ) ) ;
#15 = VERTEX_POINT ( 'NONE', #302 ) ;
#16 = DIRECTION ( 'NONE',  ( 0.0000000000000000000, 1.836909530733566100E-016, -1.000000000000000000 ) ) ;
#17 = EDGE_CURVE ( 'NONE', #171, #260, #168, .T. ) ;
#18 = DIRECTION ( 'NONE',  ( -1.000000000000000000, 0.0000000000000000000, -0.0000000000000000000 ) ) ;
#19 = LINE ( 'NONE', #48, #170 ) ;
#20 = DIRECTION ( 'NONE',  ( 0.0000000000000000000, 1.836909530733598900E-016, -1.000000000000000000 ) ) ;
#21 = AXIS2_PLACEMENT_3D ( 'NONE', #305, #16, #316 ) ;
#22 = LOCAL_TIME ( 14, 11, 56.00000000000000000, #186 ) ;
#23 = ORIENTED_EDGE ( 'NONE', *, *, #207, .F. ) ;
#24 = CARTESIAN_POINT ( 'NONE',  ( 0.0000000000000000000, 6.829619984160658000E-017, 11.92858157394900000 ) ) ;
#25 = PERSON_AND_ORGANIZATION ( #251, #204 ) ;
#26 = DIRECTION ( 'NONE',  ( 1.000000000000000000, 0.0000000000000000000, 0.0000000000000000000 ) ) ;
#27 =( NAMED_UNIT ( * ) SI_UNIT ( $, .STERADIAN. ) SOLID_ANGLE_UNIT ( ) );
#28 = ADVANCED_FACE ( 'NONE', ( #163 ), #79, .T. ) ;
#29 = EDGE_LOOP ( 'NONE', ( #82, #244, #4, #195 ) ) ;
#30 = CC_DESIGN_SECURITY_CLASSIFICATION ( #281, ( #206 ) ) ;
#31 = VERTEX_POINT ( 'NONE', #67 ) ;
#32 = ORIENTED_EDGE ( 'NONE', *, *, #207, .T. ) ;
#33 = DATE_TIME_ROLE ( 'creation_date' ) ;
#34 = PERSON_AND_ORGANIZATION_ROLE ( 'design_owner' ) ;
#35 = ORIENTED_EDGE ( 'NONE', *, *, #309, .T. ) ;
#36 = APPROVAL_ROLE ( '' ) ;
#37 = CLOSED_SHELL ( 'NONE', ( #285, #100, #230, #42, #138, #256, #81, #252, #105, #28 ) ) ;
#38 = CIRCLE ( 'NONE', #313, 0.5000000000000000000 ) ;
#39 = AXIS2_PLACEMENT_3D ( 'NONE', #184, #26, #216 ) ;
#40 = DIRECTION ( 'NONE',  ( 0.0000000000000000000, -1.000000000000000000, -1.800597199133870800E-016 ) ) ;
#41 = ORIENTED_EDGE ( 'NONE', *, *, #288, .F. ) ;
#42 = ADVANCED_FACE ( 'NONE', ( #291 ), #78, .T. ) ;
#43 = DIRECTION ( 'NONE',  ( 0.0000000000000000000, -1.000000000000000000, -2.048885995248197400E-016 ) ) ;
#44 = DIRECTION ( 'NONE',  ( 1.000000000000000000, -1.224646799147353200E-016, -2.249565377136128300E-032 ) ) ;
#45 = PRODUCT_RELATED_PRODUCT_CATEGORY ( 'detail', '', ( #314 ) ) ;
#46 = CARTESIAN_POINT ( 'NONE',  ( 0.0000000000000000000, 6.829619984160658000E-017, 11.92858157394900000 ) ) ;
#47 = ORIENTED_EDGE ( 'NONE', *, *, #236, .F. ) ;
#48 = CARTESIAN_POINT ( 'NONE',  ( 6.123233995736764800E-017, 0.5000000000000001100, -0.1907610779773057400 ) ) ;
#49 = ORIENTED_EDGE ( 'NONE', *, *, #199, .F. ) ;
#50 = ORIENTED_EDGE ( 'NONE', *, *, #318, .F. ) ;
#51 = COORDINATED_UNIVERSAL_TIME_OFFSET ( 5, 0, .BEHIND. ) ;
#52 = ORIENTED_EDGE ( 'NONE', *, *, #296, .F. ) ;
#53 = DIRECTION ( 'NONE',  ( 0.0000000000000000000, -1.000000000000000000, -2.081629103004126600E-016 ) ) ;
#54 =( LENGTH_UNIT ( ) NAMED_UNIT ( * ) SI_UNIT ( $, .METRE. ) );
#55 = DIRECTION ( 'NONE',  ( 0.0000000000000000000, 1.836909530733598900E-016, -1.000000000000000000 ) ) ;
#56 = PERSON_AND_ORGANIZATION_ROLE ( 'design_supplier' ) ;
#57 = CIRCLE ( 'NONE', #254, 12.13751968503936700 ) ;
#58 = CARTESIAN_POINT ( 'NONE',  ( 0.0000000000000000000, 2.296015282321207300E-015, -0.1989568007358250800 ) ) ;
#59 = CYLINDRICAL_SURFACE ( 'NONE', #141, 0.5000000000000000000 ) ;
#60 = PERSON_AND_ORGANIZATION_ROLE ( 'creator' ) ;
#61 = CARTESIAN_POINT ( 'NONE',  ( 6.026918225436047600E-017, 0.4921352205086602100, -0.1989568007358245000 ) ) ;
#62 = APPROVAL_STATUS ( 'not_yet_approved' ) ;
#63 = EDGE_LOOP ( 'NONE', ( #49, #134, #135, #97 ) ) ;
#64 = FACE_OUTER_BOUND ( 'NONE', #261, .T. ) ;
#65 = PERSON_AND_ORGANIZATION ( #251, #204 ) ;
#66 = APPROVAL_PERSON_ORGANIZATION ( #237, #219, #229 ) ;
#67 = CARTESIAN_POINT ( 'NONE',  ( 0.0000000000000000000, -0.4921352205086555500, -0.1989568007358246100 ) ) ;
#68 = DIRECTION ( 'NONE',  ( -0.0000000000000000000, -1.836909530733598900E-016, 1.000000000000000000 ) ) ;
#69 = AXIS2_PLACEMENT_3D ( 'NONE', #277, #155, #176 ) ;
#70 = APPROVAL_DATE_TIME ( #220, #324 ) ;
#71 = DIRECTION ( 'NONE',  ( 0.0000000000000000000, -1.000000000000000000, -2.048885995248196900E-016 ) ) ;
#72 = SPHERICAL_SURFACE ( 'NONE', #177, 0.6102362204724411900 ) ;
#73 = CARTESIAN_POINT ( 'NONE',  ( 0.0000000000000000000, 2.292409638218434700E-017, 0.1955445885838014200 ) ) ;
#74 = EDGE_LOOP ( 'NONE', ( #247, #188, #41, #198 ) ) ;
#75 = CONICAL_SURFACE ( 'NONE', #165, 0.5000000000000001100, 0.7853981633974482800 ) ;
#76 = AXIS2_PLACEMENT_3D ( 'NONE', #282, #107, #122 ) ;
#77 = DIRECTION ( 'NONE',  ( 8.479321351046103700E-017, 0.6923891326829692000, 0.7215242816028616400 ) ) ;
#78 = SPHERICAL_SURFACE ( 'NONE', #162, 12.13751968503936700 ) ;
#79 = CONICAL_SURFACE ( 'NONE', #221, 0.5000000000000000000, 0.7647950444250325400 ) ;
#80 = LINE ( 'NONE', #233, #121 ) ;
#81 = ADVANCED_FACE ( 'NONE', ( #64 ), #86, .T. ) ;
#82 = ORIENTED_EDGE ( 'NONE', *, *, #201, .F. ) ;
#83 = ORIENTED_EDGE ( 'NONE', *, *, #236, .T. ) ;
#84 = LINE ( 'NONE', #249, #99 ) ;
#85 = DIRECTION ( 'NONE',  ( -0.0000000000000000000, -1.836909530733598900E-016, 1.000000000000000000 ) ) ;
#86 = SPHERICAL_SURFACE ( 'NONE', #39, 12.13751968503936700 ) ;
#87 = SPHERICAL_SURFACE ( 'NONE', #317, 0.6102362204724411900 ) ;
#88 = CIRCLE ( 'NONE', #286, 0.4921352205086209600 ) ;
#89 = LOCAL_TIME ( 14, 11, 56.00000000000000000, #209 ) ;
#90 = AXIS2_PLACEMENT_3D ( 'NONE', #264, #290, #258 ) ;
#91 = CARTESIAN_POINT ( 'NONE',  ( 0.0000000000000000000, 9.388495245043264500E-017, -0.1907610779773058200 ) ) ;
#92 = DIRECTION ( 'NONE',  ( 0.0000000000000000000, -1.000000000000000000, -2.048885995248197400E-016 ) ) ;
#93 = CARTESIAN_POINT ( 'NONE',  ( 0.0000000000000000000, 0.4944322300693975200, 0.2011123585144042300 ) ) ;
#94 = CC_DESIGN_PERSON_AND_ORGANIZATION_ASSIGNMENT ( #25, #34, ( #314 ) ) ;
#95 = DIRECTION ( 'NONE',  ( 0.0000000000000000000, 1.000000000000000000, 2.238352872228137200E-016 ) ) ;
#96 = FACE_OUTER_BOUND ( 'NONE', #74, .T. ) ;
#97 = ORIENTED_EDGE ( 'NONE', *, *, #234, .F. ) ;
#98 = CIRCLE ( 'NONE', #90, 0.4944322300693972900 ) ;
#99 = VECTOR ( 'NONE', #271, 39.37007874015748100 ) ;
#100 = ADVANCED_FACE ( 'NONE', ( #196 ), #75, .T. ) ;
#101 = CARTESIAN_POINT ( 'NONE',  ( 0.0000000000000000000, 6.829619984160658000E-017, 0.5587784243427019700 ) ) ;
#102 = LENGTH_MEASURE_WITH_UNIT ( LENGTH_MEASURE( 0.02539999999999999900 ), #54 );
#103 = EDGE_CURVE ( 'NONE', #31, #173, #147, .T. ) ;
#104 = LINE ( 'NONE', #226, #124 ) ;
#105 = ADVANCED_FACE ( 'NONE', ( #142 ), #118, .T. ) ;
#106 = CIRCLE ( 'NONE', #179, 0.6102362204724411900 ) ;
#107 = DIRECTION ( 'NONE',  ( 0.0000000000000000000, 0.0000000000000000000, 1.000000000000000000 ) ) ;
#108 = ADVANCED_BREP_SHAPE_REPRESENTATION ( '21998-E0W', ( #11, #76 ), #330 ) ;
#109 = CALENDAR_DATE ( 2018, 1, 6 ) ;
#110 = APPROVAL_DATE_TIME ( #132, #139 ) ;
#111 = DIRECTION ( 'NONE',  ( 0.0000000000000000000, 0.0000000000000000000, -1.000000000000000000 ) ) ;
#112 = EDGE_LOOP ( 'NONE', ( #52, #283, #157, #257 ) ) ;
#113 = DATE_AND_TIME ( #187, #218 ) ;
#114 = CIRCLE ( 'NONE', #227, 0.5000000000000001100 ) ;
#115 = VECTOR ( 'NONE', #295, 39.37007874015748900 ) ;
#116 = DIRECTION ( 'NONE',  ( 1.000000000000000000, 0.0000000000000000000, 0.0000000000000000000 ) ) ;
#117 = CARTESIAN_POINT ( 'NONE',  ( 0.0000000000000000000, 6.829619984160658000E-017, 0.5587784243427019700 ) ) ;
#118 = CONICAL_SURFACE ( 'NONE', #21, 0.5000000000000001100, 0.7853981633974482800 ) ;
#119 = CALENDAR_DATE ( 2018, 1, 6 ) ;
#120 = DIRECTION ( 'NONE',  ( -1.000000000000000000, 0.0000000000000000000, 0.0000000000000000000 ) ) ;
#121 = VECTOR ( 'NONE', #217, 39.37007874015748100 ) ;
#122 = DIRECTION ( 'NONE',  ( 1.000000000000000000, 0.0000000000000000000, 0.0000000000000000000 ) ) ;
#123 = PRODUCT_DEFINITION ( 'UNKNOWN', '', #206, #287 ) ;
#124 = VECTOR ( 'NONE', #222, 39.37007874015748100 ) ;
#125 = DIRECTION ( 'NONE',  ( 0.0000000000000000000, -1.000000000000000000, -1.878145495644180800E-016 ) ) ;
#126 = DIRECTION ( 'NONE',  ( -0.0000000000000000000, -1.836909530733598900E-016, 1.000000000000000000 ) ) ;
#127 = ORIENTED_EDGE ( 'NONE', *, *, #137, .T. ) ;
#128 = CIRCLE ( 'NONE', #223, 0.6102362204724411900 ) ;
#129 = CARTESIAN_POINT ( 'NONE',  ( 0.0000000000000000000, 9.388495245043246000E-017, -0.1907610779773058500 ) ) ;
#130 = LOCAL_TIME ( 14, 11, 56.00000000000000000, #210 ) ;
#131 = ORIENTED_EDGE ( 'NONE', *, *, #288, .T. ) ;
#132 = DATE_AND_TIME ( #211, #22 ) ;
#133 = APPROVAL_PERSON_ORGANIZATION ( #65, #139, #215 ) ;
#134 = ORIENTED_EDGE ( 'NONE', *, *, #318, .T. ) ;
#135 = ORIENTED_EDGE ( 'NONE', *, *, #159, .T. ) ;
#136 = DIRECTION ( 'NONE',  ( 0.0000000000000000000, -1.000000000000000000, -2.081629103004126600E-016 ) ) ;
#137 = EDGE_CURVE ( 'NONE', #260, #171, #98, .T. ) ;
#138 = ADVANCED_FACE ( 'NONE', ( #284 ), #87, .F. ) ;
#139 = APPROVAL ( #62, 'UNSPECIFIED' ) ;
#140 = CARTESIAN_POINT ( 'NONE',  ( 0.0000000000000000000, 2.296015282321207300E-015, -0.1989568007358250800 ) ) ;
#141 = AXIS2_PLACEMENT_3D ( 'NONE', #213, #200, #224 ) ;
#142 = FACE_OUTER_BOUND ( 'NONE', #29, .T. ) ;
#143 = DIRECTION ( 'NONE',  ( 1.000000000000000000, 0.0000000000000000000, 0.0000000000000000000 ) ) ;
#144 = EDGE_LOOP ( 'NONE', ( #10, #300, #293 ) ) ;
#145 =( NAMED_UNIT ( * ) PLANE_ANGLE_UNIT ( ) SI_UNIT ( $, .RADIAN. ) );
#146 = FACE_OUTER_BOUND ( 'NONE', #151, .T. ) ;
#147 = LINE ( 'NONE', #297, #115 ) ;
#148 = DIRECTION ( 'NONE',  ( 1.224646799147353200E-016, 1.000000000000000000, 0.0000000000000000000 ) ) ;
#149 = DIRECTION ( 'NONE',  ( -0.0000000000000000000, -1.836909530733566100E-016, 1.000000000000000000 ) ) ;
#150 = DIRECTION ( 'NONE',  ( -0.0000000000000000000, -1.836909530733598900E-016, 1.000000000000000000 ) ) ;
#151 = EDGE_LOOP ( 'NONE', ( #23, #83, #127 ) ) ;
#152 = DIRECTION ( 'NONE',  ( 0.0000000000000000000, -1.000000000000000000, -2.048885995248197400E-016 ) ) ;
#153 = DIRECTION ( 'NONE',  ( -0.0000000000000000000, -1.836909530733566100E-016, 1.000000000000000000 ) ) ;
#154 = PRODUCT_DEFINITION_SHAPE ( 'NONE', 'NONE',  #123 ) ;
#155 = DIRECTION ( 'NONE',  ( -0.0000000000000000000, -1.836909530733566100E-016, 1.000000000000000000 ) ) ;
#156 = CC_DESIGN_APPROVAL ( #139, ( #123 ) ) ;
#157 = ORIENTED_EDGE ( 'NONE', *, *, #311, .F. ) ;
#158 = CARTESIAN_POINT ( 'NONE',  ( 0.0000000000000000000, 9.388495245043264500E-017, -0.1907610779773058200 ) ) ;
#159 = EDGE_CURVE ( 'NONE', #173, #185, #84, .T. ) ;
#160 = APPLICATION_PROTOCOL_DEFINITION ( 'international standard', 'config_control_design', 1994, #327 ) ;
#161 = EDGE_LOOP ( 'NONE', ( #243, #326, #265, #50 ) ) ;
#162 = AXIS2_PLACEMENT_3D ( 'NONE', #5, #143, #40 ) ;
#163 = FACE_OUTER_BOUND ( 'NONE', #161, .T. ) ;
#164 = APPROVAL_DATE_TIME ( #274, #219 ) ;
#165 = AXIS2_PLACEMENT_3D ( 'NONE', #228, #269, #242 ) ;
#166 = VERTEX_POINT ( 'NONE', #241 ) ;
#167 = DIRECTION ( 'NONE',  ( -0.0000000000000000000, -1.836909530733566100E-016, 1.000000000000000000 ) ) ;
#168 = CIRCLE ( 'NONE', #6, 0.4944322300693972900 ) ;
#169 = CC_DESIGN_PERSON_AND_ORGANIZATION_ASSIGNMENT ( #276, #60, ( #123 ) ) ;
#170 = VECTOR ( 'NONE', #77, 39.37007874015748900 ) ;
#171 = VERTEX_POINT ( 'NONE', #235 ) ;
#172 = ORIENTED_EDGE ( 'NONE', *, *, #17, .F. ) ;
#173 = VERTEX_POINT ( 'NONE', #240 ) ;
#174 = ORIENTED_EDGE ( 'NONE', *, *, #307, .T. ) ;
#175 = APPLICATION_CONTEXT ( 'configuration controlled 3d designs of mechanical parts and assemblies' ) ;
#176 = DIRECTION ( 'NONE',  ( 0.0000000000000000000, -1.000000000000000000, -2.048885995248196900E-016 ) ) ;
#177 = AXIS2_PLACEMENT_3D ( 'NONE', #101, #120, #95 ) ;
#178 = CONICAL_SURFACE ( 'NONE', #197, 0.5000000000000000000, 0.7647950444250325400 ) ;
#179 = AXIS2_PLACEMENT_3D ( 'NONE', #117, #116, #111 ) ;
#180 = SHAPE_DEFINITION_REPRESENTATION ( #154, #108 ) ;
#181 = FACE_OUTER_BOUND ( 'NONE', #112, .T. ) ;
#182 = CIRCLE ( 'NONE', #238, 0.4921352205086209600 ) ;
#183 = CARTESIAN_POINT ( 'NONE',  ( 0.0000000000000000000, 6.829619984160658000E-017, -0.05145779612973953900 ) ) ;
#184 = CARTESIAN_POINT ( 'NONE',  ( 0.0000000000000000000, 6.829619984160658000E-017, 11.92858157394900000 ) ) ;
#185 = VERTEX_POINT ( 'NONE', #246 ) ;
#186 = COORDINATED_UNIVERSAL_TIME_OFFSET ( 5, 0, .BEHIND. ) ;
#187 = CALENDAR_DATE ( 2018, 1, 6 ) ;
#188 = ORIENTED_EDGE ( 'NONE', *, *, #199, .T. ) ;
#189 = VERTEX_POINT ( 'NONE', #323 ) ;
#190 = DIRECTION ( 'NONE',  ( -1.224646799147353500E-016, -1.000000000000000000, 0.0000000000000000000 ) ) ;
#191 = CC_DESIGN_DATE_AND_TIME_ASSIGNMENT ( #1, #33, ( #123 ) ) ;
#192 = VECTOR ( 'NONE', #7, 39.37007874015748100 ) ;
#193 = DIRECTION ( 'NONE',  ( -1.000000000000000000, 1.224646799147353200E-016, 2.249565377136128300E-032 ) ) ;
#194 = DIRECTION ( 'NONE',  ( 0.0000000000000000000, -1.000000000000000000, -2.071958370271109500E-016 ) ) ;
#195 = ORIENTED_EDGE ( 'NONE', *, *, #234, .T. ) ;
#196 = FACE_OUTER_BOUND ( 'NONE', #8, .T. ) ;
#197 = AXIS2_PLACEMENT_3D ( 'NONE', #91, #150, #92 ) ;
#198 = ORIENTED_EDGE ( 'NONE', *, *, #159, .F. ) ;
#199 = EDGE_CURVE ( 'NONE', #15, #166, #104, .T. ) ;
#200 = DIRECTION ( 'NONE',  ( -0.0000000000000000000, -1.836909530733566100E-016, 1.000000000000000000 ) ) ;
#201 = EDGE_CURVE ( 'NONE', #171, #185, #80, .T. ) ;
#202 = MECHANICAL_CONTEXT ( 'NONE', #175, 'mechanical' ) ;
#203 = PERSON_AND_ORGANIZATION_ROLE ( 'creator' ) ;
#204 = ORGANIZATION ( 'UNSPECIFIED', 'UNSPECIFIED', '' ) ;
#205 = SECURITY_CLASSIFICATION_LEVEL ( 'unclassified' ) ;
#206 = PRODUCT_DEFINITION_FORMATION_WITH_SPECIFIED_SOURCE ( 'ANY', '', #314, .NOT_KNOWN. ) ;
#207 = EDGE_CURVE ( 'NONE', #9, #171, #128, .T. ) ;
#208 = APPLICATION_PROTOCOL_DEFINITION ( 'international standard', 'config_control_design', 1994, #175 ) ;
#209 = COORDINATED_UNIVERSAL_TIME_OFFSET ( 5, 0, .BEHIND. ) ;
#210 = COORDINATED_UNIVERSAL_TIME_OFFSET ( 5, 0, .BEHIND. ) ;
#211 = CALENDAR_DATE ( 2018, 1, 6 ) ;
#212 = AXIS2_PLACEMENT_3D ( 'NONE', #183, #167, #125 ) ;
#213 = CARTESIAN_POINT ( 'NONE',  ( 0.0000000000000000000, 6.829619984160658000E-017, -0.05145779612973953900 ) ) ;
#214 = CIRCLE ( 'NONE', #301, 0.5000000000000000000 ) ;
#215 = APPROVAL_ROLE ( '' ) ;
#216 = DIRECTION ( 'NONE',  ( 0.0000000000000000000, -1.000000000000000000, -1.800597199133870800E-016 ) ) ;
#217 = DIRECTION ( 'NONE',  ( 8.659560562354931600E-017, -0.7071067811865473500, -0.7071067811865476800 ) ) ;
#218 = LOCAL_TIME ( 14, 11, 56.00000000000000000, #239 ) ;
#219 = APPROVAL ( #270, 'UNSPECIFIED' ) ;
#220 = DATE_AND_TIME ( #109, #130 ) ;
#221 = AXIS2_PLACEMENT_3D ( 'NONE', #158, #85, #43 ) ;
#222 = DIRECTION ( 'NONE',  ( -0.0000000000000000000, -1.836909530733566100E-016, 1.000000000000000000 ) ) ;
#223 = AXIS2_PLACEMENT_3D ( 'NONE', #308, #193, #190 ) ;
#224 = DIRECTION ( 'NONE',  ( 0.0000000000000000000, -1.000000000000000000, -1.878145495644180800E-016 ) ) ;
#225 = APPROVAL_PERSON_ORGANIZATION ( #250, #324, #36 ) ;
#226 = CARTESIAN_POINT ( 'NONE',  ( 6.123233995736766000E-017, 0.5000000000000001100, -0.05145779612973944200 ) ) ;
#227 = AXIS2_PLACEMENT_3D ( 'NONE', #73, #149, #71 ) ;
#228 = CARTESIAN_POINT ( 'NONE',  ( 0.0000000000000000000, 2.292409638218434700E-017, 0.1955445885838014200 ) ) ;
#229 = APPROVAL_ROLE ( '' ) ;
#230 = ADVANCED_FACE ( 'NONE', ( #96 ), #59, .T. ) ;
#231 = UNCERTAINTY_MEASURE_WITH_UNIT (LENGTH_MEASURE( 1.000000000000000100E-005 ), #329, 'distance_accuracy_value', 'NONE');
#232 = CC_DESIGN_APPROVAL ( #219, ( #206 ) ) ;
#233 = CARTESIAN_POINT ( 'NONE',  ( 6.123233995736767300E-017, -0.5000000000000001100, 0.1955445885838013000 ) ) ;
#234 = EDGE_CURVE ( 'NONE', #166, #185, #322, .T. ) ;
#235 = CARTESIAN_POINT ( 'NONE',  ( -6.055048479497753200E-017, -0.4944322300693974000, 0.2011123585144040700 ) ) ;
#236 = EDGE_CURVE ( 'NONE', #9, #260, #106, .T. ) ;
#237 = PERSON_AND_ORGANIZATION ( #251, #204 ) ;
#238 = AXIS2_PLACEMENT_3D ( 'NONE', #58, #55, #53 ) ;
#239 = COORDINATED_UNIVERSAL_TIME_OFFSET ( 5, 0, .BEHIND. ) ;
#240 = CARTESIAN_POINT ( 'NONE',  ( 0.0000000000000000000, -0.4999999999999999400, -0.1907610779773059600 ) ) ;
#241 = CARTESIAN_POINT ( 'NONE',  ( 6.123233995736767300E-017, 0.5000000000000001100, 0.1955445885838015300 ) ) ;
#242 = DIRECTION ( 'NONE',  ( 0.0000000000000000000, 1.000000000000000000, 2.048885995248196900E-016 ) ) ;
#243 = ORIENTED_EDGE ( 'NONE', *, *, #303, .F. ) ;
#244 = ORIENTED_EDGE ( 'NONE', *, *, #137, .F. ) ;
#245 = CARTESIAN_POINT ( 'NONE',  ( 0.0000000000000000000, 9.388495245043246000E-017, -0.1907610779773058500 ) ) ;
#246 = CARTESIAN_POINT ( 'NONE',  ( 0.0000000000000000000, -0.5000000000000001100, 0.1955445885838013000 ) ) ;
#247 = ORIENTED_EDGE ( 'NONE', *, *, #311, .T. ) ;
#248 = CC_DESIGN_PERSON_AND_ORGANIZATION_ASSIGNMENT ( #325, #203, ( #206 ) ) ;
#249 = CARTESIAN_POINT ( 'NONE',  ( 0.0000000000000000000, -0.4999999999999999400, -0.05145779612973962900 ) ) ;
#250 = PERSON_AND_ORGANIZATION ( #251, #204 ) ;
#251 = PERSON ( 'UNSPECIFIED', 'UNSPECIFIED', 'UNSPECIFIED', ('UNSPECIFIED'), ('UNSPECIFIED'), ('UNSPECIFIED') ) ;
#252 = ADVANCED_FACE ( 'NONE', ( #267 ), #299, .T. ) ;
#253 = DIRECTION ( 'NONE',  ( 0.0000000000000000000, 1.000000000000000000, 2.238352872228137200E-016 ) ) ;
#254 = AXIS2_PLACEMENT_3D ( 'NONE', #46, #44, #148 ) ;
#255 = DATE_TIME_ROLE ( 'classification_date' ) ;
#256 = ADVANCED_FACE ( 'NONE', ( #146 ), #72, .F. ) ;
#257 = ORIENTED_EDGE ( 'NONE', *, *, #103, .F. ) ;
#258 = DIRECTION ( 'NONE',  ( 0.0000000000000000000, -1.000000000000000000, -2.071958370271109500E-016 ) ) ;
#259 = PERSON_AND_ORGANIZATION ( #251, #204 ) ;
#260 = VERTEX_POINT ( 'NONE', #93 ) ;
#261 = EDGE_LOOP ( 'NONE', ( #2, #174, #35 ) ) ;
#262 = APPROVAL_STATUS ( 'not_yet_approved' ) ;
#263 = CARTESIAN_POINT ( 'NONE',  ( 0.0000000000000000000, 2.190134741713875300E-017, 0.2011123585144041500 ) ) ;
#264 = CARTESIAN_POINT ( 'NONE',  ( 0.0000000000000000000, 2.190134741713875300E-017, 0.2011123585144041500 ) ) ;
#265 = ORIENTED_EDGE ( 'NONE', *, *, #103, .T. ) ;
#266 = CC_DESIGN_PERSON_AND_ORGANIZATION_ASSIGNMENT ( #273, #56, ( #206 ) ) ;
#267 = FACE_OUTER_BOUND ( 'NONE', #63, .T. ) ;
#268 = ORIENTED_EDGE ( 'NONE', *, *, #17, .T. ) ;
#269 = DIRECTION ( 'NONE',  ( 0.0000000000000000000, 1.836909530733566100E-016, -1.000000000000000000 ) ) ;
#270 = APPROVAL_STATUS ( 'not_yet_approved' ) ;
#271 = DIRECTION ( 'NONE',  ( -0.0000000000000000000, -1.836909530733566100E-016, 1.000000000000000000 ) ) ;
#272 = PERSON_AND_ORGANIZATION_ROLE ( 'classification_officer' ) ;
#273 = PERSON_AND_ORGANIZATION ( #251, #204 ) ;
#274 = DATE_AND_TIME ( #321, #319 ) ;
#275 = AXIS2_PLACEMENT_3D ( 'NONE', #24, #18, #14 ) ;
#276 = PERSON_AND_ORGANIZATION ( #251, #204 ) ;
#277 = CARTESIAN_POINT ( 'NONE',  ( 0.0000000000000000000, 2.292409638218434700E-017, 0.1955445885838014200 ) ) ;
#278 = LINE ( 'NONE', #12, #192 ) ;
#279 = EDGE_LOOP ( 'NONE', ( #47, #32, #268 ) ) ;
#280 = CARTESIAN_POINT ( 'NONE',  ( 0.0000000000000000000, 6.829619984160658000E-017, 0.5587784243427019700 ) ) ;
#281 = SECURITY_CLASSIFICATION ( '', '', #205 ) ;
#282 = CARTESIAN_POINT ( 'NONE',  ( 0.0000000000000000000, 0.0000000000000000000, 0.0000000000000000000 ) ) ;
#283 = ORIENTED_EDGE ( 'NONE', *, *, #303, .T. ) ;
#284 = FACE_OUTER_BOUND ( 'NONE', #279, .T. ) ;
#285 = ADVANCED_FACE ( 'NONE', ( #181 ), #178, .T. ) ;
#286 = AXIS2_PLACEMENT_3D ( 'NONE', #140, #20, #136 ) ;
#287 = DESIGN_CONTEXT ( 'detailed design', #327, 'design' ) ;
#288 = EDGE_CURVE ( 'NONE', #185, #166, #114, .T. ) ;
#289 = ORIENTED_EDGE ( 'NONE', *, *, #201, .T. ) ;
#290 = DIRECTION ( 'NONE',  ( -0.0000000000000000000, -1.836909530733566100E-016, 1.000000000000000000 ) ) ;
#291 = FACE_OUTER_BOUND ( 'NONE', #144, .T. ) ;
#292 = DIRECTION ( 'NONE',  ( -1.000000000000000000, 0.0000000000000000000, 0.0000000000000000000 ) ) ;
#293 = ORIENTED_EDGE ( 'NONE', *, *, #296, .T. ) ;
#294 = CC_DESIGN_PERSON_AND_ORGANIZATION_ASSIGNMENT ( #259, #272, ( #281 ) ) ;
#295 = DIRECTION ( 'NONE',  ( 0.0000000000000000000, -0.6923891326829694200, 0.7215242816028614200 ) ) ;
#296 = EDGE_CURVE ( 'NONE', #3, #31, #182, .T. ) ;
#297 = CARTESIAN_POINT ( 'NONE',  ( 0.0000000000000000000, -0.4999999999999999400, -0.1907610779773059300 ) ) ;
#298 = EDGE_CURVE ( 'NONE', #189, #3, #57, .T. ) ;
#299 = CYLINDRICAL_SURFACE ( 'NONE', #212, 0.5000000000000000000 ) ;
#300 = ORIENTED_EDGE ( 'NONE', *, *, #298, .T. ) ;
#301 = AXIS2_PLACEMENT_3D ( 'NONE', #129, #126, #320 ) ;
#302 = CARTESIAN_POINT ( 'NONE',  ( 6.123233995736767300E-017, 0.5000000000000001100, -0.1907610779773057700 ) ) ;
#303 = EDGE_CURVE ( 'NONE', #3, #15, #19, .T. ) ;
#304 = CC_DESIGN_DATE_AND_TIME_ASSIGNMENT ( #113, #255, ( #281 ) ) ;
#305 = CARTESIAN_POINT ( 'NONE',  ( 0.0000000000000000000, 2.292409638218434700E-017, 0.1955445885838014200 ) ) ;
#306 = ORIENTED_EDGE ( 'NONE', *, *, #315, .F. ) ;
#307 = EDGE_CURVE ( 'NONE', #189, #31, #328, .T. ) ;
#308 = CARTESIAN_POINT ( 'NONE',  ( 0.0000000000000000000, 6.829619984160658000E-017, 0.5587784243427019700 ) ) ;
#309 = EDGE_CURVE ( 'NONE', #31, #3, #88, .T. ) ;
#310 = DIMENSIONAL_EXPONENTS ( 1.000000000000000000, 0.0000000000000000000, 0.0000000000000000000, 0.0000000000000000000, 0.0000000000000000000, 0.0000000000000000000, 0.0000000000000000000 ) ;
#311 = EDGE_CURVE ( 'NONE', #173, #15, #214, .T. ) ;
#312 = CARTESIAN_POINT ( 'NONE',  ( 0.0000000000000000000, 2.177572644863399400E-016, -0.05145779612973923300 ) ) ;
#313 = AXIS2_PLACEMENT_3D ( 'NONE', #245, #68, #152 ) ;
#314 = PRODUCT ( '21998-E0W', '21998-E0W', '', ( #202 ) ) ;
#315 = EDGE_CURVE ( 'NONE', #260, #166, #278, .T. ) ;
#316 = DIRECTION ( 'NONE',  ( 0.0000000000000000000, 1.000000000000000000, 2.048885995248196900E-016 ) ) ;
#317 = AXIS2_PLACEMENT_3D ( 'NONE', #280, #292, #253 ) ;
#318 = EDGE_CURVE ( 'NONE', #15, #173, #38, .T. ) ;
#319 = LOCAL_TIME ( 14, 11, 56.00000000000000000, #51 ) ;
#320 = DIRECTION ( 'NONE',  ( 0.0000000000000000000, -1.000000000000000000, -2.048885995248197400E-016 ) ) ;
#321 = CALENDAR_DATE ( 2018, 1, 6 ) ;
#322 = CIRCLE ( 'NONE', #69, 0.5000000000000001100 ) ;
#323 = CARTESIAN_POINT ( 'NONE',  ( 0.0000000000000000000, 1.554640027139542800E-015, -0.2089381110903684700 ) ) ;
#324 = APPROVAL ( #262, 'UNSPECIFIED' ) ;
#325 = PERSON_AND_ORGANIZATION ( #251, #204 ) ;
#326 = ORIENTED_EDGE ( 'NONE', *, *, #309, .F. ) ;
#327 = APPLICATION_CONTEXT ( 'configuration controlled 3d designs of mechanical parts and assemblies' ) ;
#328 = CIRCLE ( 'NONE', #275, 12.13751968503936700 ) ;
#329 =( CONVERSION_BASED_UNIT ( 'INCH', #102 ) LENGTH_UNIT ( ) NAMED_UNIT ( #310 ) );
#330 =( GEOMETRIC_REPRESENTATION_CONTEXT ( 3 ) GLOBAL_UNCERTAINTY_ASSIGNED_CONTEXT ( ( #231 ) ) GLOBAL_UNIT_ASSIGNED_CONTEXT ( ( #329, #145, #27 ) ) REPRESENTATION_CONTEXT ( 'NONE', 'WORKASPACE' ) );
ENDSEC;
END-ISO-10303-21;
