ISO-10303-21;
HEADER;
FILE_DESCRIPTION (( 'STEP AP203' ),
    '1' );
FILE_NAME ('Web Model 46639_46642.step',
    '2017-04-12T15:54:44',
    ( '' ),
    ( '' ),
    'SwSTEP 2.0',
    'SolidWorks 2016',
    '' );
FILE_SCHEMA (( 'CONFIG_CONTROL_DESIGN' ));
ENDSEC;

DATA;
#1 = PRODUCT_DEFINITION ( 'UNKNOWN', '', #94, #61 ) ;
#2 = CALENDAR_DATE ( 2017, 12, 4 ) ;
#3 = PRODUCT_RELATED_PRODUCT_CATEGORY ( 'detail', '', ( #102 ) ) ;
#4 = DIRECTION ( 'NONE',  ( -1.000000000000000000, -0.0000000000000000000, -0.0000000000000000000 ) ) ;
#5 = DIRECTION ( 'NONE',  ( -0.0000000000000000000, -0.0000000000000000000, -1.000000000000000000 ) ) ;
#6 = DATE_AND_TIME ( #59, #91 ) ;
#7 = PERSON_AND_ORGANIZATION ( #224, #128 ) ;
#8 = DIRECTION ( 'NONE',  ( -0.0000000000000000000, -0.0000000000000000000, -1.000000000000000000 ) ) ;
#9 = CALENDAR_DATE ( 2017, 12, 4 ) ;
#10 = PERSON_AND_ORGANIZATION ( #224, #128 ) ;
#11 = ADVANCED_FACE ( 'NONE', ( #193 ), #208, .F. ) ;
#12 = AXIS2_PLACEMENT_3D ( 'NONE', #134, #103, #159 ) ;
#13 = LINE ( 'NONE', #76, #112 ) ;
#14 = EDGE_CURVE ( 'NONE', #198, #18, #178, .T. ) ;
#15 = CARTESIAN_POINT ( 'NONE',  ( -37.50000000000000000, -37.50000000000000000, -0.5000000000000000000 ) ) ;
#16 = ORIENTED_EDGE ( 'NONE', *, *, #36, .F. ) ;
#17 = FACE_OUTER_BOUND ( 'NONE', #35, .T. ) ;
#18 = VERTEX_POINT ( 'NONE', #33 ) ;
#19 = APPROVAL_ROLE ( '' ) ;
#20 = PLANE ( 'NONE',  #72 ) ;
#21 = ADVANCED_FACE ( 'NONE', ( #93 ), #114, .T. ) ;
#22 =( NAMED_UNIT ( * ) PLANE_ANGLE_UNIT ( ) SI_UNIT ( $, .RADIAN. ) );
#23 = APPROVAL_DATE_TIME ( #215, #226 ) ;
#24 = EDGE_CURVE ( 'NONE', #198, #197, #13, .T. ) ;
#25 = MANIFOLD_SOLID_BREP ( 'Boss-Extrude1', #64 ) ;
#26 = COORDINATED_UNIVERSAL_TIME_OFFSET ( 5, 0, .BEHIND. ) ;
#27 = AXIS2_PLACEMENT_3D ( 'NONE', #207, #151, #31 ) ;
#28 = PERSON_AND_ORGANIZATION ( #224, #128 ) ;
#29 = PRODUCT_DEFINITION_SHAPE ( 'NONE', 'NONE',  #1 ) ;
#30 = FACE_OUTER_BOUND ( 'NONE', #81, .T. ) ;
#31 = DIRECTION ( 'NONE',  ( 1.000000000000000000, 0.0000000000000000000, 0.0000000000000000000 ) ) ;
#32 = ORIENTED_EDGE ( 'NONE', *, *, #109, .T. ) ;
#33 = CARTESIAN_POINT ( 'NONE',  ( -37.50000000000000000, 37.50000000000000000, 0.5000000000000000000 ) ) ;
#34 = CARTESIAN_POINT ( 'NONE',  ( -37.50000000000000000, 37.50000000000000000, 0.5000000000000000000 ) ) ;
#35 = EDGE_LOOP ( 'NONE', ( #210, #192, #16, #70 ) ) ;
#36 = EDGE_CURVE ( 'NONE', #18, #42, #125, .T. ) ;
#37 = DATE_TIME_ROLE ( 'creation_date' ) ;
#38 = EDGE_LOOP ( 'NONE', ( #152, #184, #116, #83 ) ) ;
#39 = DIRECTION ( 'NONE',  ( 0.0000000000000000000, -1.000000000000000000, 0.0000000000000000000 ) ) ;
#40 = CC_DESIGN_SECURITY_CLASSIFICATION ( #235, ( #94 ) ) ;
#41 = EDGE_CURVE ( 'NONE', #42, #131, #183, .T. ) ;
#42 = VERTEX_POINT ( 'NONE', #77 ) ;
#43 = PERSON_AND_ORGANIZATION_ROLE ( 'design_supplier' ) ;
#44 = APPROVAL_STATUS ( 'not_yet_approved' ) ;
#45 = PLANE ( 'NONE',  #115 ) ;
#46 = EDGE_CURVE ( 'NONE', #18, #100, #200, .T. ) ;
#47 = SECURITY_CLASSIFICATION_LEVEL ( 'unclassified' ) ;
#48 = LOCAL_TIME ( 11, 54, 44.00000000000000000, #50 ) ;
#49 = CARTESIAN_POINT ( 'NONE',  ( -37.50000000000000000, -37.50000000000000000, 0.5000000000000000000 ) ) ;
#50 = COORDINATED_UNIVERSAL_TIME_OFFSET ( 5, 0, .BEHIND. ) ;
#51 = DIRECTION ( 'NONE',  ( -1.000000000000000000, 0.0000000000000000000, 0.0000000000000000000 ) ) ;
#52 = EDGE_CURVE ( 'NONE', #127, #198, #164, .T. ) ;
#53 = CARTESIAN_POINT ( 'NONE',  ( 37.50000000000000000, 37.50000000000000000, -0.5000000000000000000 ) ) ;
#54 = ORIENTED_EDGE ( 'NONE', *, *, #14, .F. ) ;
#55 = APPROVAL_DATE_TIME ( #6, #177 ) ;
#56 = CARTESIAN_POINT ( 'NONE',  ( 0.0000000000000000000, 0.0000000000000000000, -0.5000000000000000000 ) ) ;
#57 = CARTESIAN_POINT ( 'NONE',  ( 37.50000000000000000, -37.50000000000000000, 0.5000000000000000000 ) ) ;
#58 = ORIENTED_EDGE ( 'NONE', *, *, #36, .T. ) ;
#59 = CALENDAR_DATE ( 2017, 12, 4 ) ;
#60 = CARTESIAN_POINT ( 'NONE',  ( -37.50000000000000000, 37.50000000000000000, -0.5000000000000000000 ) ) ;
#61 = DESIGN_CONTEXT ( 'detailed design', #202, 'design' ) ;
#62 = APPROVAL_STATUS ( 'not_yet_approved' ) ;
#63 =( GEOMETRIC_REPRESENTATION_CONTEXT ( 3 ) GLOBAL_UNCERTAINTY_ASSIGNED_CONTEXT ( ( #69 ) ) GLOBAL_UNIT_ASSIGNED_CONTEXT ( ( #156, #22, #163 ) ) REPRESENTATION_CONTEXT ( 'NONE', 'WORKASPACE' ) );
#64 = CLOSED_SHELL ( 'NONE', ( #162, #86, #144, #11, #21, #67 ) ) ;
#65 = DIRECTION ( 'NONE',  ( 1.000000000000000000, 0.0000000000000000000, 0.0000000000000000000 ) ) ;
#66 = CALENDAR_DATE ( 2017, 12, 4 ) ;
#67 = ADVANCED_FACE ( 'NONE', ( #30 ), #45, .F. ) ;
#68 = DIRECTION ( 'NONE',  ( -0.0000000000000000000, -0.0000000000000000000, -1.000000000000000000 ) ) ;
#69 = UNCERTAINTY_MEASURE_WITH_UNIT (LENGTH_MEASURE( 1.000000000000000100E-005 ), #156, 'distance_accuracy_value', 'NONE');
#70 = ORIENTED_EDGE ( 'NONE', *, *, #46, .T. ) ;
#71 = ORIENTED_EDGE ( 'NONE', *, *, #24, .T. ) ;
#72 = AXIS2_PLACEMENT_3D ( 'NONE', #82, #51, #158 ) ;
#73 = ORIENTED_EDGE ( 'NONE', *, *, #141, .F. ) ;
#74 = DATE_TIME_ROLE ( 'classification_date' ) ;
#75 = DIRECTION ( 'NONE',  ( 1.000000000000000000, 0.0000000000000000000, 0.0000000000000000000 ) ) ;
#76 = CARTESIAN_POINT ( 'NONE',  ( 37.50000000000000000, 37.50000000000000000, 0.5000000000000000000 ) ) ;
#77 = CARTESIAN_POINT ( 'NONE',  ( -37.50000000000000000, -37.50000000000000000, 0.5000000000000000000 ) ) ;
#78 = APPROVAL_ROLE ( '' ) ;
#79 = DIRECTION ( 'NONE',  ( -0.0000000000000000000, -0.0000000000000000000, -1.000000000000000000 ) ) ;
#80 = CARTESIAN_POINT ( 'NONE',  ( 37.50000000000000000, 37.50000000000000000, -0.5000000000000000000 ) ) ;
#81 = EDGE_LOOP ( 'NONE', ( #73, #195, #92, #169 ) ) ;
#82 = CARTESIAN_POINT ( 'NONE',  ( 37.50000000000000000, 37.50000000000000000, 0.5000000000000000000 ) ) ;
#83 = ORIENTED_EDGE ( 'NONE', *, *, #107, .T. ) ;
#84 = APPROVAL ( #228, 'UNSPECIFIED' ) ;
#85 = EDGE_CURVE ( 'NONE', #197, #100, #217, .T. ) ;
#86 = ADVANCED_FACE ( 'NONE', ( #117 ), #199, .F. ) ;
#87 = VERTEX_POINT ( 'NONE', #145 ) ;
#88 = ORIENTED_EDGE ( 'NONE', *, *, #41, .T. ) ;
#89 = PERSON_AND_ORGANIZATION ( #224, #128 ) ;
#90 = ORIENTED_EDGE ( 'NONE', *, *, #52, .T. ) ;
#91 = LOCAL_TIME ( 11, 54, 44.00000000000000000, #118 ) ;
#92 = ORIENTED_EDGE ( 'NONE', *, *, #98, .F. ) ;
#93 = FACE_OUTER_BOUND ( 'NONE', #153, .T. ) ;
#94 = PRODUCT_DEFINITION_FORMATION_WITH_SPECIFIED_SOURCE ( 'ANY', '', #102, .NOT_KNOWN. ) ;
#95 = APPROVAL_DATE_TIME ( #187, #84 ) ;
#96 = DIRECTION ( 'NONE',  ( 1.000000000000000000, 0.0000000000000000000, 0.0000000000000000000 ) ) ;
#97 = MECHANICAL_CONTEXT ( 'NONE', #182, 'mechanical' ) ;
#98 = EDGE_CURVE ( 'NONE', #100, #131, #143, .T. ) ;
#99 = DIRECTION ( 'NONE',  ( -0.0000000000000000000, 0.0000000000000000000, -1.000000000000000000 ) ) ;
#100 = VERTEX_POINT ( 'NONE', #60 ) ;
#101 = DIRECTION ( 'NONE',  ( 1.000000000000000000, 0.0000000000000000000, 0.0000000000000000000 ) ) ;
#102 = PRODUCT ( 'Web Model 46639_46642', 'Web Model 46639_46642', '', ( #97 ) ) ;
#103 = DIRECTION ( 'NONE',  ( 0.0000000000000000000, 1.000000000000000000, 0.0000000000000000000 ) ) ;
#104 = DATE_AND_TIME ( #186, #148 ) ;
#105 = DIRECTION ( 'NONE',  ( 0.0000000000000000000, -1.000000000000000000, 0.0000000000000000000 ) ) ;
#106 = APPROVAL_PERSON_ORGANIZATION ( #10, #177, #19 ) ;
#107 = EDGE_CURVE ( 'NONE', #127, #87, #155, .T. ) ;
#108 = CC_DESIGN_PERSON_AND_ORGANIZATION_ASSIGNMENT ( #170, #185, ( #1 ) ) ;
#109 = EDGE_CURVE ( 'NONE', #131, #87, #157, .T. ) ;
#110 = CARTESIAN_POINT ( 'NONE',  ( 0.0000000000000000000, 0.0000000000000000000, 0.0000000000000000000 ) ) ;
#111 = PLANE ( 'NONE',  #181 ) ;
#112 = VECTOR ( 'NONE', #8, 1000.000000000000000 ) ;
#113 = DIRECTION ( 'NONE',  ( -0.0000000000000000000, 0.0000000000000000000, 1.000000000000000000 ) ) ;
#114 = PLANE ( 'NONE',  #27 ) ;
#115 = AXIS2_PLACEMENT_3D ( 'NONE', #56, #113, #101 ) ;
#116 = ORIENTED_EDGE ( 'NONE', *, *, #52, .F. ) ;
#117 = FACE_OUTER_BOUND ( 'NONE', #147, .T. ) ;
#118 = COORDINATED_UNIVERSAL_TIME_OFFSET ( 5, 0, .BEHIND. ) ;
#119 = VECTOR ( 'NONE', #68, 1000.000000000000000 ) ;
#120 = ADVANCED_BREP_SHAPE_REPRESENTATION ( 'Web Model 46639_46642', ( #25, #227 ), #63 ) ;
#121 = CARTESIAN_POINT ( 'NONE',  ( -37.50000000000000000, 37.50000000000000000, -0.5000000000000000000 ) ) ;
#122 = CC_DESIGN_DATE_AND_TIME_ASSIGNMENT ( #172, #37, ( #1 ) ) ;
#123 = ORIENTED_EDGE ( 'NONE', *, *, #150, .T. ) ;
#124 = PERSON_AND_ORGANIZATION_ROLE ( 'classification_officer' ) ;
#125 = LINE ( 'NONE', #132, #130 ) ;
#126 = VECTOR ( 'NONE', #230, 1000.000000000000000 ) ;
#127 = VERTEX_POINT ( 'NONE', #57 ) ;
#128 = ORGANIZATION ( 'UNSPECIFIED', 'UNSPECIFIED', '' ) ;
#129 = APPLICATION_PROTOCOL_DEFINITION ( 'international standard', 'config_control_design', 1994, #202 ) ;
#130 = VECTOR ( 'NONE', #39, 1000.000000000000000 ) ;
#131 = VERTEX_POINT ( 'NONE', #15 ) ;
#132 = CARTESIAN_POINT ( 'NONE',  ( -37.50000000000000000, 37.50000000000000000, 0.5000000000000000000 ) ) ;
#133 = ORIENTED_EDGE ( 'NONE', *, *, #14, .T. ) ;
#134 = CARTESIAN_POINT ( 'NONE',  ( -37.50000000000000000, -37.50000000000000000, 0.5000000000000000000 ) ) ;
#135 = DIRECTION ( 'NONE',  ( -1.000000000000000000, -0.0000000000000000000, -0.0000000000000000000 ) ) ;
#136 = CARTESIAN_POINT ( 'NONE',  ( 37.50000000000000000, 37.50000000000000000, 0.5000000000000000000 ) ) ;
#137 = COORDINATED_UNIVERSAL_TIME_OFFSET ( 5, 0, .BEHIND. ) ;
#138 = CC_DESIGN_APPROVAL ( #84, ( #1 ) ) ;
#139 = PERSON_AND_ORGANIZATION_ROLE ( 'design_owner' ) ;
#140 = LINE ( 'NONE', #194, #234 ) ;
#141 = EDGE_CURVE ( 'NONE', #87, #197, #146, .T. ) ;
#142 = CARTESIAN_POINT ( 'NONE',  ( -37.50000000000000000, 37.50000000000000000, 0.5000000000000000000 ) ) ;
#143 = LINE ( 'NONE', #154, #174 ) ;
#144 = ADVANCED_FACE ( 'NONE', ( #17 ), #111, .F. ) ;
#145 = CARTESIAN_POINT ( 'NONE',  ( 37.50000000000000000, -37.50000000000000000, -0.5000000000000000000 ) ) ;
#146 = LINE ( 'NONE', #80, #126 ) ;
#147 = EDGE_LOOP ( 'NONE', ( #165, #216, #54, #71 ) ) ;
#148 = LOCAL_TIME ( 11, 54, 44.00000000000000000, #191 ) ;
#149 = AXIS2_PLACEMENT_3D ( 'NONE', #167, #105, #223 ) ;
#150 = EDGE_CURVE ( 'NONE', #42, #127, #140, .T. ) ;
#151 = DIRECTION ( 'NONE',  ( -0.0000000000000000000, 0.0000000000000000000, 1.000000000000000000 ) ) ;
#152 = ORIENTED_EDGE ( 'NONE', *, *, #141, .T. ) ;
#153 = EDGE_LOOP ( 'NONE', ( #90, #133, #58, #123 ) ) ;
#154 = CARTESIAN_POINT ( 'NONE',  ( -37.50000000000000000, 37.50000000000000000, -0.5000000000000000000 ) ) ;
#155 = LINE ( 'NONE', #189, #206 ) ;
#156 =( LENGTH_UNIT ( ) NAMED_UNIT ( * ) SI_UNIT ( .MILLI., .METRE. ) );
#157 = LINE ( 'NONE', #237, #209 ) ;
#158 = DIRECTION ( 'NONE',  ( 0.0000000000000000000, 0.0000000000000000000, 1.000000000000000000 ) ) ;
#159 = DIRECTION ( 'NONE',  ( 0.0000000000000000000, -0.0000000000000000000, 1.000000000000000000 ) ) ;
#160 = EDGE_LOOP ( 'NONE', ( #32, #173, #201, #88 ) ) ;
#161 = FACE_OUTER_BOUND ( 'NONE', #38, .T. ) ;
#162 = ADVANCED_FACE ( 'NONE', ( #161 ), #20, .F. ) ;
#163 =( NAMED_UNIT ( * ) SI_UNIT ( $, .STERADIAN. ) SOLID_ANGLE_UNIT ( ) );
#164 = LINE ( 'NONE', #136, #196 ) ;
#165 = ORIENTED_EDGE ( 'NONE', *, *, #85, .T. ) ;
#166 = PERSON_AND_ORGANIZATION ( #224, #128 ) ;
#167 = CARTESIAN_POINT ( 'NONE',  ( -37.50000000000000000, 37.50000000000000000, 0.5000000000000000000 ) ) ;
#168 = CC_DESIGN_PERSON_AND_ORGANIZATION_ASSIGNMENT ( #89, #124, ( #235 ) ) ;
#169 = ORIENTED_EDGE ( 'NONE', *, *, #85, .F. ) ;
#170 = PERSON_AND_ORGANIZATION ( #224, #128 ) ;
#171 = APPLICATION_PROTOCOL_DEFINITION ( 'international standard', 'config_control_design', 1994, #182 ) ;
#172 = DATE_AND_TIME ( #9, #48 ) ;
#173 = ORIENTED_EDGE ( 'NONE', *, *, #107, .F. ) ;
#174 = VECTOR ( 'NONE', #205, 1000.000000000000000 ) ;
#175 = DIRECTION ( 'NONE',  ( -0.0000000000000000000, 1.000000000000000000, -0.0000000000000000000 ) ) ;
#176 = LOCAL_TIME ( 11, 54, 44.00000000000000000, #26 ) ;
#177 = APPROVAL ( #44, 'UNSPECIFIED' ) ;
#178 = LINE ( 'NONE', #190, #229 ) ;
#179 = DIRECTION ( 'NONE',  ( 0.0000000000000000000, 0.0000000000000000000, 1.000000000000000000 ) ) ;
#180 = CC_DESIGN_DATE_AND_TIME_ASSIGNMENT ( #104, #74, ( #235 ) ) ;
#181 = AXIS2_PLACEMENT_3D ( 'NONE', #34, #231, #99 ) ;
#182 = APPLICATION_CONTEXT ( 'configuration controlled 3d designs of mechanical parts and assemblies' ) ;
#183 = LINE ( 'NONE', #49, #119 ) ;
#184 = ORIENTED_EDGE ( 'NONE', *, *, #24, .F. ) ;
#185 = PERSON_AND_ORGANIZATION_ROLE ( 'creator' ) ;
#186 = CALENDAR_DATE ( 2017, 12, 4 ) ;
#187 = DATE_AND_TIME ( #2, #214 ) ;
#188 = CC_DESIGN_APPROVAL ( #177, ( #94 ) ) ;
#189 = CARTESIAN_POINT ( 'NONE',  ( 37.50000000000000000, -37.50000000000000000, 0.5000000000000000000 ) ) ;
#190 = CARTESIAN_POINT ( 'NONE',  ( -37.50000000000000000, 37.50000000000000000, 0.5000000000000000000 ) ) ;
#191 = COORDINATED_UNIVERSAL_TIME_OFFSET ( 5, 0, .BEHIND. ) ;
#192 = ORIENTED_EDGE ( 'NONE', *, *, #41, .F. ) ;
#193 = FACE_OUTER_BOUND ( 'NONE', #160, .T. ) ;
#194 = CARTESIAN_POINT ( 'NONE',  ( -37.50000000000000000, -37.50000000000000000, 0.5000000000000000000 ) ) ;
#195 = ORIENTED_EDGE ( 'NONE', *, *, #109, .F. ) ;
#196 = VECTOR ( 'NONE', #175, 1000.000000000000000 ) ;
#197 = VERTEX_POINT ( 'NONE', #53 ) ;
#198 = VERTEX_POINT ( 'NONE', #225 ) ;
#199 = PLANE ( 'NONE',  #149 ) ;
#200 = LINE ( 'NONE', #142, #219 ) ;
#201 = ORIENTED_EDGE ( 'NONE', *, *, #150, .F. ) ;
#202 = APPLICATION_CONTEXT ( 'configuration controlled 3d designs of mechanical parts and assemblies' ) ;
#203 = PERSON_AND_ORGANIZATION ( #224, #128 ) ;
#204 = CC_DESIGN_PERSON_AND_ORGANIZATION_ASSIGNMENT ( #213, #236, ( #94 ) ) ;
#205 = DIRECTION ( 'NONE',  ( 0.0000000000000000000, -1.000000000000000000, 0.0000000000000000000 ) ) ;
#206 = VECTOR ( 'NONE', #5, 1000.000000000000000 ) ;
#207 = CARTESIAN_POINT ( 'NONE',  ( 0.0000000000000000000, 0.0000000000000000000, 0.5000000000000000000 ) ) ;
#208 = PLANE ( 'NONE',  #12 ) ;
#209 = VECTOR ( 'NONE', #65, 1000.000000000000000 ) ;
#210 = ORIENTED_EDGE ( 'NONE', *, *, #98, .T. ) ;
#211 = SHAPE_DEFINITION_REPRESENTATION ( #29, #120 ) ;
#212 = CC_DESIGN_PERSON_AND_ORGANIZATION_ASSIGNMENT ( #203, #139, ( #102 ) ) ;
#213 = PERSON_AND_ORGANIZATION ( #224, #128 ) ;
#214 = LOCAL_TIME ( 11, 54, 44.00000000000000000, #137 ) ;
#215 = DATE_AND_TIME ( #66, #176 ) ;
#216 = ORIENTED_EDGE ( 'NONE', *, *, #46, .F. ) ;
#217 = LINE ( 'NONE', #121, #232 ) ;
#218 = APPROVAL_ROLE ( '' ) ;
#219 = VECTOR ( 'NONE', #79, 1000.000000000000000 ) ;
#220 = CC_DESIGN_PERSON_AND_ORGANIZATION_ASSIGNMENT ( #28, #43, ( #94 ) ) ;
#221 = APPROVAL_PERSON_ORGANIZATION ( #166, #84, #218 ) ;
#222 = APPROVAL_PERSON_ORGANIZATION ( #7, #226, #78 ) ;
#223 = DIRECTION ( 'NONE',  ( 0.0000000000000000000, -0.0000000000000000000, -1.000000000000000000 ) ) ;
#224 = PERSON ( 'UNSPECIFIED', 'UNSPECIFIED', 'UNSPECIFIED', ('UNSPECIFIED'), ('UNSPECIFIED'), ('UNSPECIFIED') ) ;
#225 = CARTESIAN_POINT ( 'NONE',  ( 37.50000000000000000, 37.50000000000000000, 0.5000000000000000000 ) ) ;
#226 = APPROVAL ( #62, 'UNSPECIFIED' ) ;
#227 = AXIS2_PLACEMENT_3D ( 'NONE', #110, #179, #96 ) ;
#228 = APPROVAL_STATUS ( 'not_yet_approved' ) ;
#229 = VECTOR ( 'NONE', #135, 1000.000000000000000 ) ;
#230 = DIRECTION ( 'NONE',  ( -0.0000000000000000000, 1.000000000000000000, -0.0000000000000000000 ) ) ;
#231 = DIRECTION ( 'NONE',  ( 1.000000000000000000, 0.0000000000000000000, -0.0000000000000000000 ) ) ;
#232 = VECTOR ( 'NONE', #4, 1000.000000000000000 ) ;
#233 = CC_DESIGN_APPROVAL ( #226, ( #235 ) ) ;
#234 = VECTOR ( 'NONE', #75, 1000.000000000000000 ) ;
#235 = SECURITY_CLASSIFICATION ( '', '', #47 ) ;
#236 = PERSON_AND_ORGANIZATION_ROLE ( 'creator' ) ;
#237 = CARTESIAN_POINT ( 'NONE',  ( -37.50000000000000000, -37.50000000000000000, -0.5000000000000000000 ) ) ;
ENDSEC;
END-ISO-10303-21;
