ISO-10303-21;
HEADER;
FILE_DESCRIPTION (( 'STEP AP203' ),
    '1' );
FILE_NAME ('ISP Flat Parts_16799.step',
    '2020-12-15T21:25:32',
    ( '' ),
    ( '' ),
    'SwSTEP 2.0',
    'SolidWorks 2018',
    '' );
FILE_SCHEMA (( 'CONFIG_CONTROL_DESIGN' ));
ENDSEC;

DATA;
#1 = ADVANCED_FACE ( 'NONE', ( #52 ), #100, .T. ) ;
#2 = DIRECTION ( 'NONE',  ( 1.000000000000000000, 0.0000000000000000000, 0.0000000000000000000 ) ) ;
#3 = EDGE_CURVE ( 'NONE', #170, #40, #43, .T. ) ;
#4 = CALENDAR_DATE ( 2020, 15, 12 ) ;
#5 = APPLICATION_CONTEXT ( 'configuration controlled 3d designs of mechanical parts and assemblies' ) ;
#6 = MECHANICAL_CONTEXT ( 'NONE', #19, 'mechanical' ) ;
#7 = DIRECTION ( 'NONE',  ( 1.000000000000000000, 0.0000000000000000000, -0.0000000000000000000 ) ) ;
#8 = DIRECTION ( 'NONE',  ( 0.0000000000000000000, 0.0000000000000000000, 1.000000000000000000 ) ) ;
#9 = LOCAL_TIME ( 16, 25, 32.00000000000000000, #85 ) ;
#10 = FACE_OUTER_BOUND ( 'NONE', #172, .T. ) ;
#11 = APPROVAL_DATE_TIME ( #161, #140 ) ;
#12 = SECURITY_CLASSIFICATION ( '', '', #144 ) ;
#13 = VERTEX_POINT ( 'NONE', #175 ) ;
#14 = CALENDAR_DATE ( 2020, 15, 12 ) ;
#15 = PRODUCT_RELATED_PRODUCT_CATEGORY ( 'detail', '', ( #54 ) ) ;
#16 = CIRCLE ( 'NONE', #130, 12.69999999999999929 ) ;
#17 = LINE ( 'NONE', #143, #122 ) ;
#18 = CARTESIAN_POINT ( 'NONE',  ( 12.69999999999999929, 1.555301434917138433E-15, 0.0000000000000000000 ) ) ;
#19 = APPLICATION_CONTEXT ( 'configuration controlled 3d designs of mechanical parts and assemblies' ) ;
#20 = AXIS2_PLACEMENT_3D ( 'NONE', #115, #22, #7 ) ;
#21 = APPROVAL_ROLE ( '' ) ;
#22 = DIRECTION ( 'NONE',  ( 0.0000000000000000000, 0.0000000000000000000, 1.000000000000000000 ) ) ;
#23 = FACE_OUTER_BOUND ( 'NONE', #164, .T. ) ;
#24 = PERSON_AND_ORGANIZATION ( #107, #89 ) ;
#25 = COORDINATED_UNIVERSAL_TIME_OFFSET ( 5, 0, .BEHIND. ) ;
#26 = PRODUCT_DEFINITION ( 'UNKNOWN', '', #145, #98 ) ;
#27 = SHAPE_DEFINITION_REPRESENTATION ( #121, #59 ) ;
#28 = CIRCLE ( 'NONE', #51, 12.69999999999999929 ) ;
#29 =( GEOMETRIC_REPRESENTATION_CONTEXT ( 3 ) GLOBAL_UNCERTAINTY_ASSIGNED_CONTEXT ( ( #57 ) ) GLOBAL_UNIT_ASSIGNED_CONTEXT ( ( #102, #165, #86 ) ) REPRESENTATION_CONTEXT ( 'NONE', 'WORKASPACE' ) );
#30 = ADVANCED_FACE ( 'NONE', ( #73 ), #147, .T. ) ;
#31 = APPROVAL_PERSON_ORGANIZATION ( #58, #39, #64 ) ;
#32 = PERSON_AND_ORGANIZATION_ROLE ( 'design_owner' ) ;
#33 = DIRECTION ( 'NONE',  ( 1.000000000000000000, 0.0000000000000000000, 0.0000000000000000000 ) ) ;
#34 = DIRECTION ( 'NONE',  ( 1.000000000000000000, 0.0000000000000000000, 0.0000000000000000000 ) ) ;
#35 = CARTESIAN_POINT ( 'NONE',  ( -12.69999999999999929, 0.0000000000000000000, 2.000000000000000000 ) ) ;
#36 = EDGE_CURVE ( 'NONE', #13, #156, #80, .T. ) ;
#37 = ORIENTED_EDGE ( 'NONE', *, *, #36, .T. ) ;
#38 = APPROVAL_PERSON_ORGANIZATION ( #101, #169, #152 ) ;
#39 = APPROVAL ( #48, 'UNSPECIFIED' ) ;
#40 = VERTEX_POINT ( 'NONE', #18 ) ;
#41 = CC_DESIGN_APPROVAL ( #140, ( #26 ) ) ;
#42 = COORDINATED_UNIVERSAL_TIME_OFFSET ( 5, 0, .BEHIND. ) ;
#43 = CIRCLE ( 'NONE', #76, 12.69999999999999929 ) ;
#44 = CARTESIAN_POINT ( 'NONE',  ( 0.0000000000000000000, 0.0000000000000000000, 2.000000000000000000 ) ) ;
#45 = ADVANCED_FACE ( 'NONE', ( #23 ), #118, .T. ) ;
#46 = APPROVAL_DATE_TIME ( #78, #39 ) ;
#47 = LINE ( 'NONE', #66, #67 ) ;
#48 = APPROVAL_STATUS ( 'not_yet_approved' ) ;
#49 = DIRECTION ( 'NONE',  ( -0.0000000000000000000, -0.0000000000000000000, -1.000000000000000000 ) ) ;
#50 = ORIENTED_EDGE ( 'NONE', *, *, #104, .T. ) ;
#51 = AXIS2_PLACEMENT_3D ( 'NONE', #87, #126, #60 ) ;
#52 = FACE_OUTER_BOUND ( 'NONE', #158, .T. ) ;
#53 = ORIENTED_EDGE ( 'NONE', *, *, #3, .F. ) ;
#54 = PRODUCT ( 'ISP Flat Parts_16799', 'ISP Flat Parts_16799', '', ( #6 ) ) ;
#55 = CC_DESIGN_APPROVAL ( #39, ( #145 ) ) ;
#56 = DIRECTION ( 'NONE',  ( -0.0000000000000000000, -0.0000000000000000000, -1.000000000000000000 ) ) ;
#57 = UNCERTAINTY_MEASURE_WITH_UNIT (LENGTH_MEASURE( 1.000000000000000082E-05 ), #102, 'distance_accuracy_value', 'NONE');
#58 = PERSON_AND_ORGANIZATION ( #107, #89 ) ;
#59 = ADVANCED_BREP_SHAPE_REPRESENTATION ( 'ISP Flat Parts_16799', ( #154, #108 ), #29 ) ;
#60 = DIRECTION ( 'NONE',  ( 1.000000000000000000, 0.0000000000000000000, 0.0000000000000000000 ) ) ;
#61 = PERSON_AND_ORGANIZATION_ROLE ( 'design_supplier' ) ;
#62 = CLOSED_SHELL ( 'NONE', ( #1, #45, #30, #157 ) ) ;
#63 = DATE_AND_TIME ( #14, #9 ) ;
#64 = APPROVAL_ROLE ( '' ) ;
#65 = DIRECTION ( 'NONE',  ( -1.000000000000000000, 0.0000000000000000000, 0.0000000000000000000 ) ) ;
#66 = CARTESIAN_POINT ( 'NONE',  ( -12.69999999999999929, 0.0000000000000000000, 2.000000000000000000 ) ) ;
#67 = VECTOR ( 'NONE', #131, 1000.000000000000000 ) ;
#68 = DATE_AND_TIME ( #92, #117 ) ;
#69 = CARTESIAN_POINT ( 'NONE',  ( 0.0000000000000000000, 0.0000000000000000000, 2.000000000000000000 ) ) ;
#70 = COORDINATED_UNIVERSAL_TIME_OFFSET ( 5, 0, .BEHIND. ) ;
#71 = DATE_TIME_ROLE ( 'classification_date' ) ;
#72 = CC_DESIGN_PERSON_AND_ORGANIZATION_ASSIGNMENT ( #171, #166, ( #145 ) ) ;
#73 = FACE_OUTER_BOUND ( 'NONE', #94, .T. ) ;
#74 = PERSON_AND_ORGANIZATION_ROLE ( 'creator' ) ;
#75 = ORIENTED_EDGE ( 'NONE', *, *, #79, .F. ) ;
#76 = AXIS2_PLACEMENT_3D ( 'NONE', #82, #83, #2 ) ;
#77 = EDGE_CURVE ( 'NONE', #156, #13, #28, .T. ) ;
#78 = DATE_AND_TIME ( #124, #136 ) ;
#79 = EDGE_CURVE ( 'NONE', #156, #170, #47, .T. ) ;
#80 = CIRCLE ( 'NONE', #174, 12.69999999999999929 ) ;
#81 = EDGE_CURVE ( 'NONE', #13, #40, #17, .T. ) ;
#82 = CARTESIAN_POINT ( 'NONE',  ( 0.0000000000000000000, 0.0000000000000000000, 0.0000000000000000000 ) ) ;
#83 = DIRECTION ( 'NONE',  ( 0.0000000000000000000, 0.0000000000000000000, 1.000000000000000000 ) ) ;
#84 = LOCAL_TIME ( 16, 25, 32.00000000000000000, #42 ) ;
#85 = COORDINATED_UNIVERSAL_TIME_OFFSET ( 5, 0, .BEHIND. ) ;
#86 =( NAMED_UNIT ( * ) SI_UNIT ( $, .STERADIAN. ) SOLID_ANGLE_UNIT ( ) );
#87 = CARTESIAN_POINT ( 'NONE',  ( 0.0000000000000000000, 0.0000000000000000000, 2.000000000000000000 ) ) ;
#88 = AXIS2_PLACEMENT_3D ( 'NONE', #69, #125, #96 ) ;
#89 = ORGANIZATION ( 'UNSPECIFIED', 'UNSPECIFIED', '' ) ;
#90 = ORIENTED_EDGE ( 'NONE', *, *, #77, .F. ) ;
#91 = ORIENTED_EDGE ( 'NONE', *, *, #36, .F. ) ;
#92 = CALENDAR_DATE ( 2020, 15, 12 ) ;
#93 = CC_DESIGN_PERSON_AND_ORGANIZATION_ASSIGNMENT ( #120, #150, ( #12 ) ) ;
#94 = EDGE_LOOP ( 'NONE', ( #168, #37 ) ) ;
#95 = CC_DESIGN_DATE_AND_TIME_ASSIGNMENT ( #68, #129, ( #26 ) ) ;
#96 = DIRECTION ( 'NONE',  ( 1.000000000000000000, 0.0000000000000000000, -0.0000000000000000000 ) ) ;
#97 = CC_DESIGN_PERSON_AND_ORGANIZATION_ASSIGNMENT ( #24, #61, ( #145 ) ) ;
#98 = DESIGN_CONTEXT ( 'detailed design', #5, 'design' ) ;
#99 = CARTESIAN_POINT ( 'NONE',  ( 0.0000000000000000000, 0.0000000000000000000, 0.0000000000000000000 ) ) ;
#100 = CYLINDRICAL_SURFACE ( 'NONE', #163, 12.69999999999999929 ) ;
#101 = PERSON_AND_ORGANIZATION ( #107, #89 ) ;
#102 =( LENGTH_UNIT ( ) NAMED_UNIT ( * ) SI_UNIT ( .MILLI., .METRE. ) );
#103 = APPROVAL_STATUS ( 'not_yet_approved' ) ;
#104 = EDGE_CURVE ( 'NONE', #40, #170, #16, .T. ) ;
#105 = DIRECTION ( 'NONE',  ( 1.000000000000000000, 0.0000000000000000000, 0.0000000000000000000 ) ) ;
#106 = ORIENTED_EDGE ( 'NONE', *, *, #3, .T. ) ;
#107 = PERSON ( 'UNSPECIFIED', 'UNSPECIFIED', 'UNSPECIFIED', ('UNSPECIFIED'), ('UNSPECIFIED'), ('UNSPECIFIED') ) ;
#108 = AXIS2_PLACEMENT_3D ( 'NONE', #99, #113, #33 ) ;
#109 = PERSON_AND_ORGANIZATION ( #107, #89 ) ;
#110 = ORIENTED_EDGE ( 'NONE', *, *, #81, .F. ) ;
#111 = CC_DESIGN_PERSON_AND_ORGANIZATION_ASSIGNMENT ( #148, #74, ( #26 ) ) ;
#112 = PLANE ( 'NONE',  #20 ) ;
#113 = DIRECTION ( 'NONE',  ( 0.0000000000000000000, 0.0000000000000000000, 1.000000000000000000 ) ) ;
#114 = APPROVAL_STATUS ( 'not_yet_approved' ) ;
#115 = CARTESIAN_POINT ( 'NONE',  ( 0.0000000000000000000, 0.0000000000000000000, 0.0000000000000000000 ) ) ;
#116 = DIRECTION ( 'NONE',  ( 0.0000000000000000000, 0.0000000000000000000, 1.000000000000000000 ) ) ;
#117 = LOCAL_TIME ( 16, 25, 32.00000000000000000, #133 ) ;
#118 = CYLINDRICAL_SURFACE ( 'NONE', #137, 12.69999999999999929 ) ;
#119 = APPROVAL_PERSON_ORGANIZATION ( #109, #140, #21 ) ;
#120 = PERSON_AND_ORGANIZATION ( #107, #89 ) ;
#121 = PRODUCT_DEFINITION_SHAPE ( 'NONE', 'NONE',  #26 ) ;
#122 = VECTOR ( 'NONE', #132, 1000.000000000000000 ) ;
#123 = CC_DESIGN_APPROVAL ( #169, ( #12 ) ) ;
#124 = CALENDAR_DATE ( 2020, 15, 12 ) ;
#125 = DIRECTION ( 'NONE',  ( 0.0000000000000000000, 0.0000000000000000000, 1.000000000000000000 ) ) ;
#126 = DIRECTION ( 'NONE',  ( 0.0000000000000000000, 0.0000000000000000000, 1.000000000000000000 ) ) ;
#127 = APPLICATION_PROTOCOL_DEFINITION ( 'international standard', 'config_control_design', 1994, #5 ) ;
#128 = ORIENTED_EDGE ( 'NONE', *, *, #81, .T. ) ;
#129 = DATE_TIME_ROLE ( 'creation_date' ) ;
#130 = AXIS2_PLACEMENT_3D ( 'NONE', #162, #8, #105 ) ;
#131 = DIRECTION ( 'NONE',  ( -0.0000000000000000000, -0.0000000000000000000, -1.000000000000000000 ) ) ;
#132 = DIRECTION ( 'NONE',  ( -0.0000000000000000000, -0.0000000000000000000, -1.000000000000000000 ) ) ;
#133 = COORDINATED_UNIVERSAL_TIME_OFFSET ( 5, 0, .BEHIND. ) ;
#134 = CC_DESIGN_PERSON_AND_ORGANIZATION_ASSIGNMENT ( #155, #32, ( #54 ) ) ;
#135 = CC_DESIGN_SECURITY_CLASSIFICATION ( #12, ( #145 ) ) ;
#136 = LOCAL_TIME ( 16, 25, 32.00000000000000000, #70 ) ;
#137 = AXIS2_PLACEMENT_3D ( 'NONE', #138, #49, #65 ) ;
#138 = CARTESIAN_POINT ( 'NONE',  ( 0.0000000000000000000, 0.0000000000000000000, 2.000000000000000000 ) ) ;
#139 = CARTESIAN_POINT ( 'NONE',  ( 0.0000000000000000000, 0.0000000000000000000, 2.000000000000000000 ) ) ;
#140 = APPROVAL ( #103, 'UNSPECIFIED' ) ;
#141 = DATE_AND_TIME ( #159, #173 ) ;
#142 = APPLICATION_PROTOCOL_DEFINITION ( 'international standard', 'config_control_design', 1994, #19 ) ;
#143 = CARTESIAN_POINT ( 'NONE',  ( 12.69999999999999929, 1.555301434917138433E-15, 2.000000000000000000 ) ) ;
#144 = SECURITY_CLASSIFICATION_LEVEL ( 'unclassified' ) ;
#145 = PRODUCT_DEFINITION_FORMATION_WITH_SPECIFIED_SOURCE ( 'ANY', '', #54, .NOT_KNOWN. ) ;
#146 = ORIENTED_EDGE ( 'NONE', *, *, #104, .F. ) ;
#147 = PLANE ( 'NONE',  #88 ) ;
#148 = PERSON_AND_ORGANIZATION ( #107, #89 ) ;
#149 = DIRECTION ( 'NONE',  ( -1.000000000000000000, 0.0000000000000000000, 0.0000000000000000000 ) ) ;
#150 = PERSON_AND_ORGANIZATION_ROLE ( 'classification_officer' ) ;
#151 = APPROVAL_DATE_TIME ( #141, #169 ) ;
#152 = APPROVAL_ROLE ( '' ) ;
#153 = CARTESIAN_POINT ( 'NONE',  ( -12.69999999999999929, 0.0000000000000000000, 0.0000000000000000000 ) ) ;
#154 = MANIFOLD_SOLID_BREP ( 'Boss-Extrude1', #62 ) ;
#155 = PERSON_AND_ORGANIZATION ( #107, #89 ) ;
#156 = VERTEX_POINT ( 'NONE', #35 ) ;
#157 = ADVANCED_FACE ( 'NONE', ( #10 ), #112, .F. ) ;
#158 = EDGE_LOOP ( 'NONE', ( #91, #128, #50, #75 ) ) ;
#159 = CALENDAR_DATE ( 2020, 15, 12 ) ;
#160 = CC_DESIGN_DATE_AND_TIME_ASSIGNMENT ( #63, #71, ( #12 ) ) ;
#161 = DATE_AND_TIME ( #4, #84 ) ;
#162 = CARTESIAN_POINT ( 'NONE',  ( 0.0000000000000000000, 0.0000000000000000000, 0.0000000000000000000 ) ) ;
#163 = AXIS2_PLACEMENT_3D ( 'NONE', #44, #56, #149 ) ;
#164 = EDGE_LOOP ( 'NONE', ( #110, #90, #167, #106 ) ) ;
#165 =( NAMED_UNIT ( * ) PLANE_ANGLE_UNIT ( ) SI_UNIT ( $, .RADIAN. ) );
#166 = PERSON_AND_ORGANIZATION_ROLE ( 'creator' ) ;
#167 = ORIENTED_EDGE ( 'NONE', *, *, #79, .T. ) ;
#168 = ORIENTED_EDGE ( 'NONE', *, *, #77, .T. ) ;
#169 = APPROVAL ( #114, 'UNSPECIFIED' ) ;
#170 = VERTEX_POINT ( 'NONE', #153 ) ;
#171 = PERSON_AND_ORGANIZATION ( #107, #89 ) ;
#172 = EDGE_LOOP ( 'NONE', ( #53, #146 ) ) ;
#173 = LOCAL_TIME ( 16, 25, 32.00000000000000000, #25 ) ;
#174 = AXIS2_PLACEMENT_3D ( 'NONE', #139, #116, #34 ) ;
#175 = CARTESIAN_POINT ( 'NONE',  ( 12.69999999999999929, 1.555301434917138433E-15, 2.000000000000000000 ) ) ;
ENDSEC;
END-ISO-10303-21;
