ISO-10303-21;
HEADER;
FILE_DESCRIPTION (( 'STEP AP203' ),
    '1' );
FILE_NAME ('Web Model 48543_83912.step',
    '2019-01-28T19:15:56',
    ( '' ),
    ( '' ),
    'SwSTEP 2.0',
    'SolidWorks 2016',
    '' );
FILE_SCHEMA (( 'CONFIG_CONTROL_DESIGN' ));
ENDSEC;

DATA;
#1 = DIRECTION ( 'NONE',  ( 0.0000000000000000000, -0.0000000000000000000, -1.000000000000000000 ) ) ;
#2 = EDGE_CURVE ( 'NONE', #176, #192, #24, .T. ) ;
#3 = CC_DESIGN_PERSON_AND_ORGANIZATION_ASSIGNMENT ( #110, #170, ( #69 ) ) ;
#4 = DIRECTION ( 'NONE',  ( 1.000000000000000000, 0.0000000000000000000, 0.0000000000000000000 ) ) ;
#5 = COORDINATED_UNIVERSAL_TIME_OFFSET ( 5, 0, .BEHIND. ) ;
#6 = VECTOR ( 'NONE', #37, 1000.000000000000000 ) ;
#7 = DATE_TIME_ROLE ( 'creation_date' ) ;
#8 = ORIENTED_EDGE ( 'NONE', *, *, #222, .F. ) ;
#9 = DATE_AND_TIME ( #174, #194 ) ;
#10 = ORIENTED_EDGE ( 'NONE', *, *, #220, .T. ) ;
#11 = EDGE_CURVE ( 'NONE', #190, #78, #151, .T. ) ;
#12 = CARTESIAN_POINT ( 'NONE',  ( -24.99999999999999300, 25.00000000000000000, -1.649999999999999900 ) ) ;
#13 = FACE_OUTER_BOUND ( 'NONE', #88, .T. ) ;
#14 = EDGE_LOOP ( 'NONE', ( #42, #158, #114, #113 ) ) ;
#15 = CARTESIAN_POINT ( 'NONE',  ( -24.99999999999999300, -25.00000000000000000, 1.649999999999999900 ) ) ;
#16 = CC_DESIGN_DATE_AND_TIME_ASSIGNMENT ( #207, #77, ( #72 ) ) ;
#17 = DIRECTION ( 'NONE',  ( -1.000000000000000000, -0.0000000000000000000, -0.0000000000000000000 ) ) ;
#18 = ADVANCED_FACE ( 'NONE', ( #36 ), #211, .T. ) ;
#19 = ORIENTED_EDGE ( 'NONE', *, *, #172, .F. ) ;
#20 = ORIENTED_EDGE ( 'NONE', *, *, #50, .T. ) ;
#21 = CARTESIAN_POINT ( 'NONE',  ( -24.99999999999999300, 25.00000000000000000, -1.649999999999999900 ) ) ;
#22 = DIRECTION ( 'NONE',  ( 0.0000000000000000000, 0.0000000000000000000, -1.000000000000000000 ) ) ;
#23 = APPLICATION_PROTOCOL_DEFINITION ( 'international standard', 'config_control_design', 1994, #182 ) ;
#24 = LINE ( 'NONE', #12, #81 ) ;
#25 = DIRECTION ( 'NONE',  ( 0.0000000000000000000, 0.0000000000000000000, 1.000000000000000000 ) ) ;
#26 = CARTESIAN_POINT ( 'NONE',  ( 25.00000000000000700, -25.00000000000000000, 1.649999999999999900 ) ) ;
#27 = PERSON_AND_ORGANIZATION_ROLE ( 'design_supplier' ) ;
#28 = ORIENTED_EDGE ( 'NONE', *, *, #153, .F. ) ;
#29 = APPLICATION_PROTOCOL_DEFINITION ( 'international standard', 'config_control_design', 1994, #134 ) ;
#30 = CALENDAR_DATE ( 2019, 28, 1 ) ;
#31 = ORIENTED_EDGE ( 'NONE', *, *, #11, .F. ) ;
#32 = FACE_OUTER_BOUND ( 'NONE', #161, .T. ) ;
#33 = EDGE_CURVE ( 'NONE', #192, #107, #127, .T. ) ;
#34 = LOCAL_TIME ( 14, 15, 56.00000000000000000, #214 ) ;
#35 = VECTOR ( 'NONE', #196, 1000.000000000000000 ) ;
#36 = FACE_OUTER_BOUND ( 'NONE', #51, .T. ) ;
#37 = DIRECTION ( 'NONE',  ( -0.0000000000000000000, -1.000000000000000000, -0.0000000000000000000 ) ) ;
#38 = PLANE ( 'NONE',  #59 ) ;
#39 = VECTOR ( 'NONE', #92, 1000.000000000000000 ) ;
#40 = CARTESIAN_POINT ( 'NONE',  ( -24.99999999999999300, -25.00000000000000000, 1.649999999999999900 ) ) ;
#41 = COORDINATED_UNIVERSAL_TIME_OFFSET ( 5, 0, .BEHIND. ) ;
#42 = ORIENTED_EDGE ( 'NONE', *, *, #222, .T. ) ;
#43 = ORGANIZATION ( 'UNSPECIFIED', 'UNSPECIFIED', '' ) ;
#44 = VECTOR ( 'NONE', #179, 1000.000000000000000 ) ;
#45 = EDGE_CURVE ( 'NONE', #105, #190, #184, .T. ) ;
#46 = LOCAL_TIME ( 14, 15, 56.00000000000000000, #79 ) ;
#47 = PERSON ( 'UNSPECIFIED', 'UNSPECIFIED', 'UNSPECIFIED', ('UNSPECIFIED'), ('UNSPECIFIED'), ('UNSPECIFIED') ) ;
#48 = VECTOR ( 'NONE', #17, 1000.000000000000000 ) ;
#49 = CARTESIAN_POINT ( 'NONE',  ( 25.00000000000000700, -25.00000000000000000, 1.649999999999999900 ) ) ;
#50 = EDGE_CURVE ( 'NONE', #206, #200, #180, .T. ) ;
#51 = EDGE_LOOP ( 'NONE', ( #8, #229, #80, #227 ) ) ;
#52 =( NAMED_UNIT ( * ) SI_UNIT ( $, .STERADIAN. ) SOLID_ANGLE_UNIT ( ) );
#53 = PLANE ( 'NONE',  #189 ) ;
#54 = ADVANCED_FACE ( 'NONE', ( #130 ), #89, .F. ) ;
#55 = DIRECTION ( 'NONE',  ( 0.0000000000000000000, 1.000000000000000000, 0.0000000000000000000 ) ) ;
#56 = CARTESIAN_POINT ( 'NONE',  ( 25.00000000000000700, -25.00000000000000000, 1.649999999999999900 ) ) ;
#57 = PERSON_AND_ORGANIZATION ( #47, #43 ) ;
#58 = ORIENTED_EDGE ( 'NONE', *, *, #220, .F. ) ;
#59 = AXIS2_PLACEMENT_3D ( 'NONE', #187, #4, #22 ) ;
#60 = CC_DESIGN_SECURITY_CLASSIFICATION ( #72, ( #163 ) ) ;
#61 = APPROVAL_STATUS ( 'not_yet_approved' ) ;
#62 = ORIENTED_EDGE ( 'NONE', *, *, #2, .T. ) ;
#63 = EDGE_LOOP ( 'NONE', ( #62, #19, #169, #124 ) ) ;
#64 = ORIENTED_EDGE ( 'NONE', *, *, #45, .T. ) ;
#65 = DATE_AND_TIME ( #86, #34 ) ;
#66 = DIRECTION ( 'NONE',  ( -1.000000000000000000, 0.0000000000000000000, -0.0000000000000000000 ) ) ;
#67 = CARTESIAN_POINT ( 'NONE',  ( 25.00000000000000700, -25.00000000000000000, -1.649999999999999900 ) ) ;
#68 = LINE ( 'NONE', #166, #198 ) ;
#69 = PRODUCT_DEFINITION ( 'UNKNOWN', '', #163, #146 ) ;
#70 = DIRECTION ( 'NONE',  ( 0.0000000000000000000, -1.000000000000000000, 0.0000000000000000000 ) ) ;
#71 = CARTESIAN_POINT ( 'NONE',  ( 0.0000000000000000000, 0.0000000000000000000, 0.0000000000000000000 ) ) ;
#72 = SECURITY_CLASSIFICATION ( '', '', #131 ) ;
#73 = PERSON_AND_ORGANIZATION ( #47, #43 ) ;
#74 = DIRECTION ( 'NONE',  ( 0.0000000000000000000, 0.0000000000000000000, -1.000000000000000000 ) ) ;
#75 = APPROVAL ( #61, 'UNSPECIFIED' ) ;
#76 = DIRECTION ( 'NONE',  ( -0.0000000000000000000, -0.0000000000000000000, -1.000000000000000000 ) ) ;
#77 = DATE_TIME_ROLE ( 'classification_date' ) ;
#78 = VERTEX_POINT ( 'NONE', #67 ) ;
#79 = COORDINATED_UNIVERSAL_TIME_OFFSET ( 5, 0, .BEHIND. ) ;
#80 = ORIENTED_EDGE ( 'NONE', *, *, #33, .F. ) ;
#81 = VECTOR ( 'NONE', #84, 1000.000000000000000 ) ;
#82 = APPROVAL_PERSON_ORGANIZATION ( #73, #197, #117 ) ;
#83 = LINE ( 'NONE', #236, #39 ) ;
#84 = DIRECTION ( 'NONE',  ( -1.000000000000000000, -0.0000000000000000000, -0.0000000000000000000 ) ) ;
#85 = CC_DESIGN_PERSON_AND_ORGANIZATION_ASSIGNMENT ( #183, #132, ( #163 ) ) ;
#86 = CALENDAR_DATE ( 2019, 28, 1 ) ;
#87 = SHAPE_DEFINITION_REPRESENTATION ( #141, #109 ) ;
#88 = EDGE_LOOP ( 'NONE', ( #215, #28, #58, #232 ) ) ;
#89 = PLANE ( 'NONE',  #193 ) ;
#90 = ADVANCED_FACE ( 'NONE', ( #123 ), #53, .F. ) ;
#91 = CARTESIAN_POINT ( 'NONE',  ( -24.99999999999999300, -25.00000000000000000, -1.649999999999999900 ) ) ;
#92 = DIRECTION ( 'NONE',  ( -0.0000000000000000000, -0.0000000000000000000, -1.000000000000000000 ) ) ;
#93 = PERSON_AND_ORGANIZATION ( #47, #43 ) ;
#94 = DIRECTION ( 'NONE',  ( 0.0000000000000000000, 1.000000000000000000, 0.0000000000000000000 ) ) ;
#95 = PRODUCT_RELATED_PRODUCT_CATEGORY ( 'detail', '', ( #191 ) ) ;
#96 = CARTESIAN_POINT ( 'NONE',  ( -24.99999999999999300, 25.00000000000000000, 1.649999999999999900 ) ) ;
#97 = LOCAL_TIME ( 14, 15, 56.00000000000000000, #41 ) ;
#98 = DIRECTION ( 'NONE',  ( 1.000000000000000000, 0.0000000000000000000, 0.0000000000000000000 ) ) ;
#99 = ORIENTED_EDGE ( 'NONE', *, *, #224, .T. ) ;
#100 = APPROVAL_STATUS ( 'not_yet_approved' ) ;
#101 = APPROVAL_PERSON_ORGANIZATION ( #133, #75, #154 ) ;
#102 = CC_DESIGN_APPROVAL ( #75, ( #163 ) ) ;
#103 = VECTOR ( 'NONE', #140, 1000.000000000000000 ) ;
#104 = CC_DESIGN_PERSON_AND_ORGANIZATION_ASSIGNMENT ( #122, #116, ( #72 ) ) ;
#105 = VERTEX_POINT ( 'NONE', #218 ) ;
#106 = AXIS2_PLACEMENT_3D ( 'NONE', #71, #216, #149 ) ;
#107 = VERTEX_POINT ( 'NONE', #128 ) ;
#108 = AXIS2_PLACEMENT_3D ( 'NONE', #56, #112, #25 ) ;
#109 = ADVANCED_BREP_SHAPE_REPRESENTATION ( 'Web Model 48543_83912', ( #159, #106 ), #121 ) ;
#110 = PERSON_AND_ORGANIZATION ( #47, #43 ) ;
#111 = ADVANCED_FACE ( 'NONE', ( #13 ), #38, .F. ) ;
#112 = DIRECTION ( 'NONE',  ( -1.000000000000000000, 0.0000000000000000000, 0.0000000000000000000 ) ) ;
#113 = ORIENTED_EDGE ( 'NONE', *, *, #11, .T. ) ;
#114 = ORIENTED_EDGE ( 'NONE', *, *, #224, .F. ) ;
#115 = PLANE ( 'NONE',  #228 ) ;
#116 = PERSON_AND_ORGANIZATION_ROLE ( 'classification_officer' ) ;
#117 = APPROVAL_ROLE ( '' ) ;
#118 = ORIENTED_EDGE ( 'NONE', *, *, #153, .T. ) ;
#119 = MECHANICAL_CONTEXT ( 'NONE', #182, 'mechanical' ) ;
#120 = LINE ( 'NONE', #212, #6 ) ;
#121 =( GEOMETRIC_REPRESENTATION_CONTEXT ( 3 ) GLOBAL_UNCERTAINTY_ASSIGNED_CONTEXT ( ( #202 ) ) GLOBAL_UNIT_ASSIGNED_CONTEXT ( ( #167, #213, #52 ) ) REPRESENTATION_CONTEXT ( 'NONE', 'WORKASPACE' ) );
#122 = PERSON_AND_ORGANIZATION ( #47, #43 ) ;
#123 = FACE_OUTER_BOUND ( 'NONE', #63, .T. ) ;
#124 = ORIENTED_EDGE ( 'NONE', *, *, #195, .T. ) ;
#125 = CARTESIAN_POINT ( 'NONE',  ( 25.00000000000000700, 25.00000000000000000, -1.649999999999999900 ) ) ;
#126 = CARTESIAN_POINT ( 'NONE',  ( -24.99999999999999300, 25.00000000000000000, 1.649999999999999900 ) ) ;
#127 = LINE ( 'NONE', #91, #44 ) ;
#128 = CARTESIAN_POINT ( 'NONE',  ( -24.99999999999999300, -25.00000000000000000, -1.649999999999999900 ) ) ;
#129 = APPROVAL_STATUS ( 'not_yet_approved' ) ;
#130 = FACE_OUTER_BOUND ( 'NONE', #235, .T. ) ;
#131 = SECURITY_CLASSIFICATION_LEVEL ( 'unclassified' ) ;
#132 = PERSON_AND_ORGANIZATION_ROLE ( 'creator' ) ;
#133 = PERSON_AND_ORGANIZATION ( #47, #43 ) ;
#134 = APPLICATION_CONTEXT ( 'configuration controlled 3d designs of mechanical parts and assemblies' ) ;
#135 = VECTOR ( 'NONE', #98, 1000.000000000000000 ) ;
#136 = EDGE_CURVE ( 'NONE', #107, #78, #231, .T. ) ;
#137 = DATE_AND_TIME ( #225, #46 ) ;
#138 = CALENDAR_DATE ( 2019, 28, 1 ) ;
#139 = DIRECTION ( 'NONE',  ( 0.0000000000000000000, 0.0000000000000000000, -1.000000000000000000 ) ) ;
#140 = DIRECTION ( 'NONE',  ( 1.000000000000000000, 0.0000000000000000000, 0.0000000000000000000 ) ) ;
#141 = PRODUCT_DEFINITION_SHAPE ( 'NONE', 'NONE',  #69 ) ;
#142 = DIRECTION ( 'NONE',  ( 0.0000000000000000000, -0.0000000000000000000, 1.000000000000000000 ) ) ;
#143 = COORDINATED_UNIVERSAL_TIME_OFFSET ( 5, 0, .BEHIND. ) ;
#144 = CC_DESIGN_APPROVAL ( #197, ( #72 ) ) ;
#145 = CARTESIAN_POINT ( 'NONE',  ( 25.00000000000000700, -25.00000000000000000, -1.649999999999999900 ) ) ;
#146 = DESIGN_CONTEXT ( 'detailed design', #134, 'design' ) ;
#147 = CARTESIAN_POINT ( 'NONE',  ( -24.99999999999999300, -25.00000000000000000, -1.649999999999999900 ) ) ;
#148 = CC_DESIGN_PERSON_AND_ORGANIZATION_ASSIGNMENT ( #57, #27, ( #163 ) ) ;
#149 = DIRECTION ( 'NONE',  ( 1.000000000000000000, 0.0000000000000000000, 0.0000000000000000000 ) ) ;
#150 = APPROVAL_DATE_TIME ( #65, #75 ) ;
#151 = LINE ( 'NONE', #49, #165 ) ;
#152 = CARTESIAN_POINT ( 'NONE',  ( -24.99999999999999300, 25.00000000000000000, 1.649999999999999900 ) ) ;
#153 = EDGE_CURVE ( 'NONE', #105, #107, #223, .T. ) ;
#154 = APPROVAL_ROLE ( '' ) ;
#155 = APPROVAL_DATE_TIME ( #9, #178 ) ;
#156 = CC_DESIGN_APPROVAL ( #178, ( #69 ) ) ;
#157 = PERSON_AND_ORGANIZATION ( #47, #43 ) ;
#158 = ORIENTED_EDGE ( 'NONE', *, *, #195, .F. ) ;
#159 = MANIFOLD_SOLID_BREP ( 'Boss-Extrude1', #210 ) ;
#160 = DATE_AND_TIME ( #30, #204 ) ;
#161 = EDGE_LOOP ( 'NONE', ( #164, #31, #177, #118 ) ) ;
#162 = CC_DESIGN_DATE_AND_TIME_ASSIGNMENT ( #137, #7, ( #69 ) ) ;
#163 = PRODUCT_DEFINITION_FORMATION_WITH_SPECIFIED_SOURCE ( 'ANY', '', #191, .NOT_KNOWN. ) ;
#164 = ORIENTED_EDGE ( 'NONE', *, *, #136, .T. ) ;
#165 = VECTOR ( 'NONE', #181, 1000.000000000000000 ) ;
#166 = CARTESIAN_POINT ( 'NONE',  ( 25.00000000000000700, -25.00000000000000000, 1.649999999999999900 ) ) ;
#167 =( LENGTH_UNIT ( ) NAMED_UNIT ( * ) SI_UNIT ( .MILLI., .METRE. ) );
#168 = APPROVAL_DATE_TIME ( #160, #197 ) ;
#169 = ORIENTED_EDGE ( 'NONE', *, *, #50, .F. ) ;
#170 = PERSON_AND_ORGANIZATION_ROLE ( 'creator' ) ;
#171 = LINE ( 'NONE', #145, #35 ) ;
#172 = EDGE_CURVE ( 'NONE', #200, #192, #221, .T. ) ;
#173 = APPROVAL_ROLE ( '' ) ;
#174 = CALENDAR_DATE ( 2019, 28, 1 ) ;
#175 = VECTOR ( 'NONE', #76, 1000.000000000000000 ) ;
#176 = VERTEX_POINT ( 'NONE', #125 ) ;
#177 = ORIENTED_EDGE ( 'NONE', *, *, #45, .F. ) ;
#178 = APPROVAL ( #129, 'UNSPECIFIED' ) ;
#179 = DIRECTION ( 'NONE',  ( -0.0000000000000000000, -1.000000000000000000, -0.0000000000000000000 ) ) ;
#180 = LINE ( 'NONE', #208, #48 ) ;
#181 = DIRECTION ( 'NONE',  ( -0.0000000000000000000, -0.0000000000000000000, -1.000000000000000000 ) ) ;
#182 = APPLICATION_CONTEXT ( 'configuration controlled 3d designs of mechanical parts and assemblies' ) ;
#183 = PERSON_AND_ORGANIZATION ( #47, #43 ) ;
#184 = LINE ( 'NONE', #15, #103 ) ;
#185 = PLANE ( 'NONE',  #108 ) ;
#186 = ADVANCED_FACE ( 'NONE', ( #209 ), #185, .F. ) ;
#187 = CARTESIAN_POINT ( 'NONE',  ( -24.99999999999999300, -25.00000000000000000, 1.649999999999999900 ) ) ;
#188 = DIRECTION ( 'NONE',  ( -0.0000000000000000000, -0.0000000000000000000, -1.000000000000000000 ) ) ;
#189 = AXIS2_PLACEMENT_3D ( 'NONE', #96, #70, #1 ) ;
#190 = VERTEX_POINT ( 'NONE', #26 ) ;
#191 = PRODUCT ( 'Web Model 48543_83912', 'Web Model 48543_83912', '', ( #119 ) ) ;
#192 = VERTEX_POINT ( 'NONE', #21 ) ;
#193 = AXIS2_PLACEMENT_3D ( 'NONE', #233, #74, #199 ) ;
#194 = LOCAL_TIME ( 14, 15, 56.00000000000000000, #143 ) ;
#195 = EDGE_CURVE ( 'NONE', #206, #176, #83, .T. ) ;
#196 = DIRECTION ( 'NONE',  ( 0.0000000000000000000, 1.000000000000000000, 0.0000000000000000000 ) ) ;
#197 = APPROVAL ( #100, 'UNSPECIFIED' ) ;
#198 = VECTOR ( 'NONE', #94, 1000.000000000000000 ) ;
#199 = DIRECTION ( 'NONE',  ( -1.000000000000000000, 0.0000000000000000000, -0.0000000000000000000 ) ) ;
#200 = VERTEX_POINT ( 'NONE', #152 ) ;
#201 = PERSON_AND_ORGANIZATION_ROLE ( 'design_owner' ) ;
#202 = UNCERTAINTY_MEASURE_WITH_UNIT (LENGTH_MEASURE( 1.000000000000000100E-005 ), #167, 'distance_accuracy_value', 'NONE');
#203 = AXIS2_PLACEMENT_3D ( 'NONE', #230, #139, #66 ) ;
#204 = LOCAL_TIME ( 14, 15, 56.00000000000000000, #5 ) ;
#205 = CC_DESIGN_PERSON_AND_ORGANIZATION_ASSIGNMENT ( #93, #201, ( #191 ) ) ;
#206 = VERTEX_POINT ( 'NONE', #219 ) ;
#207 = DATE_AND_TIME ( #138, #97 ) ;
#208 = CARTESIAN_POINT ( 'NONE',  ( -24.99999999999999300, 25.00000000000000000, 1.649999999999999900 ) ) ;
#209 = FACE_OUTER_BOUND ( 'NONE', #14, .T. ) ;
#210 = CLOSED_SHELL ( 'NONE', ( #186, #90, #111, #217, #54, #18 ) ) ;
#211 = PLANE ( 'NONE',  #203 ) ;
#212 = CARTESIAN_POINT ( 'NONE',  ( -24.99999999999999300, -25.00000000000000000, 1.649999999999999900 ) ) ;
#213 =( NAMED_UNIT ( * ) PLANE_ANGLE_UNIT ( ) SI_UNIT ( $, .RADIAN. ) );
#214 = COORDINATED_UNIVERSAL_TIME_OFFSET ( 5, 0, .BEHIND. ) ;
#215 = ORIENTED_EDGE ( 'NONE', *, *, #33, .T. ) ;
#216 = DIRECTION ( 'NONE',  ( 0.0000000000000000000, 0.0000000000000000000, 1.000000000000000000 ) ) ;
#217 = ADVANCED_FACE ( 'NONE', ( #32 ), #115, .F. ) ;
#218 = CARTESIAN_POINT ( 'NONE',  ( -24.99999999999999300, -25.00000000000000000, 1.649999999999999900 ) ) ;
#219 = CARTESIAN_POINT ( 'NONE',  ( 25.00000000000000700, 25.00000000000000000, 1.649999999999999900 ) ) ;
#220 = EDGE_CURVE ( 'NONE', #200, #105, #120, .T. ) ;
#221 = LINE ( 'NONE', #126, #175 ) ;
#222 = EDGE_CURVE ( 'NONE', #78, #176, #171, .T. ) ;
#223 = LINE ( 'NONE', #237, #226 ) ;
#224 = EDGE_CURVE ( 'NONE', #190, #206, #68, .T. ) ;
#225 = CALENDAR_DATE ( 2019, 28, 1 ) ;
#226 = VECTOR ( 'NONE', #188, 1000.000000000000000 ) ;
#227 = ORIENTED_EDGE ( 'NONE', *, *, #2, .F. ) ;
#228 = AXIS2_PLACEMENT_3D ( 'NONE', #40, #55, #142 ) ;
#229 = ORIENTED_EDGE ( 'NONE', *, *, #136, .F. ) ;
#230 = CARTESIAN_POINT ( 'NONE',  ( 0.0000000000000000000, 0.0000000000000000000, -1.649999999999999900 ) ) ;
#231 = LINE ( 'NONE', #147, #135 ) ;
#232 = ORIENTED_EDGE ( 'NONE', *, *, #172, .T. ) ;
#233 = CARTESIAN_POINT ( 'NONE',  ( 0.0000000000000000000, 0.0000000000000000000, 1.649999999999999900 ) ) ;
#234 = APPROVAL_PERSON_ORGANIZATION ( #157, #178, #173 ) ;
#235 = EDGE_LOOP ( 'NONE', ( #99, #20, #10, #64 ) ) ;
#236 = CARTESIAN_POINT ( 'NONE',  ( 25.00000000000000700, 25.00000000000000000, 1.649999999999999900 ) ) ;
#237 = CARTESIAN_POINT ( 'NONE',  ( -24.99999999999999300, -25.00000000000000000, 1.649999999999999900 ) ) ;
ENDSEC;
END-ISO-10303-21;
