ISO-10303-21;
HEADER;
FILE_DESCRIPTION (( 'STEP AP203' ),
    '1' );
FILE_NAME ('Web Model 43636_21061.step',
    '2022-03-16T15:40:19',
    ( '' ),
    ( '' ),
    'SwSTEP 2.0',
    'SolidWorks 2021',
    '' );
FILE_SCHEMA (( 'CONFIG_CONTROL_DESIGN' ));
ENDSEC;

DATA;
#1 = DIRECTION ( 'NONE',  ( 0.000000000000000000, 0.000000000000000000, 1.000000000000000000 ) ) ;
#2 = APPLICATION_PROTOCOL_DEFINITION ( 'international standard', 'config_control_design', 1994, #139 ) ;
#3 = AXIS2_PLACEMENT_3D ( 'NONE', #149, #106, #137 ) ;
#4 = PERSON_AND_ORGANIZATION ( #146, #98 ) ;
#5 = COORDINATED_UNIVERSAL_TIME_OFFSET ( 5, 0, .BEHIND. ) ;
#6 = ADVANCED_BREP_SHAPE_REPRESENTATION ( 'Web Model 43636_21061', ( #61, #164 ), #41 ) ;
#7 = APPROVAL_DATE_TIME ( #47, #68 ) ;
#8 = DATE_AND_TIME ( #118, #84 ) ;
#9 = CC_DESIGN_APPROVAL ( #82, ( #63 ) ) ;
#10 = ORIENTED_EDGE ( 'NONE', *, *, #53, .F. ) ;
#11 = VERTEX_POINT ( 'NONE', #55 ) ;
#12 = CIRCLE ( 'NONE', #126, 12.69999999999999929 ) ;
#13 = CYLINDRICAL_SURFACE ( 'NONE', #45, 12.69999999999999929 ) ;
#14 =( NAMED_UNIT ( * ) PLANE_ANGLE_UNIT ( ) SI_UNIT ( $, .RADIAN. ) );
#15 = CARTESIAN_POINT ( 'NONE',  ( 0.000000000000000000, 0.000000000000000000, 0.000000000000000000 ) ) ;
#16 = CARTESIAN_POINT ( 'NONE',  ( 0.000000000000000000, 0.000000000000000000, 0.5000000000000000000 ) ) ;
#17 = DATE_AND_TIME ( #75, #143 ) ;
#18 = EDGE_CURVE ( 'NONE', #38, #56, #145, .T. ) ;
#19 = PERSON_AND_ORGANIZATION_ROLE ( 'creator' ) ;
#20 = APPROVAL_PERSON_ORGANIZATION ( #85, #68, #142 ) ;
#21 = CC_DESIGN_PERSON_AND_ORGANIZATION_ASSIGNMENT ( #160, #43, ( #88 ) ) ;
#22 = CLOSED_SHELL ( 'NONE', ( #122, #129, #159, #144 ) ) ;
#23 = COORDINATED_UNIVERSAL_TIME_OFFSET ( 5, 0, .BEHIND. ) ;
#24 = EDGE_LOOP ( 'NONE', ( #171, #27 ) ) ;
#25 = DATE_TIME_ROLE ( 'classification_date' ) ;
#26 = APPROVAL ( #92, 'UNSPECIFIED' ) ;
#27 = ORIENTED_EDGE ( 'NONE', *, *, #152, .F. ) ;
#28 = PERSON_AND_ORGANIZATION ( #146, #98 ) ;
#29 = COORDINATED_UNIVERSAL_TIME_OFFSET ( 5, 0, .BEHIND. ) ;
#30 = FACE_OUTER_BOUND ( 'NONE', #131, .T. ) ;
#31 = FACE_OUTER_BOUND ( 'NONE', #35, .T. ) ;
#32 = CARTESIAN_POINT ( 'NONE',  ( 0.000000000000000000, 0.000000000000000000, 0.5000000000000000000 ) ) ;
#33 = CC_DESIGN_DATE_AND_TIME_ASSIGNMENT ( #59, #25, ( #63 ) ) ;
#34 = AXIS2_PLACEMENT_3D ( 'NONE', #15, #1, #74 ) ;
#35 = EDGE_LOOP ( 'NONE', ( #90, #170 ) ) ;
#36 = VERTEX_POINT ( 'NONE', #172 ) ;
#37 = AXIS2_PLACEMENT_3D ( 'NONE', #150, #175, #42 ) ;
#38 = VERTEX_POINT ( 'NONE', #99 ) ;
#39 = DIRECTION ( 'NONE',  ( -0.000000000000000000, -0.000000000000000000, -1.000000000000000000 ) ) ;
#40 = CARTESIAN_POINT ( 'NONE',  ( 0.000000000000000000, 0.000000000000000000, 0.000000000000000000 ) ) ;
#41 =( GEOMETRIC_REPRESENTATION_CONTEXT ( 3 ) GLOBAL_UNCERTAINTY_ASSIGNED_CONTEXT ( ( #114 ) ) GLOBAL_UNIT_ASSIGNED_CONTEXT ( ( #161, #14, #58 ) ) REPRESENTATION_CONTEXT ( 'NONE', 'WORKASPACE' ) );
#42 = DIRECTION ( 'NONE',  ( 1.000000000000000000, 0.000000000000000000, -0.000000000000000000 ) ) ;
#43 = PERSON_AND_ORGANIZATION_ROLE ( 'design_owner' ) ;
#44 = DIRECTION ( 'NONE',  ( -1.000000000000000000, 0.000000000000000000, 0.000000000000000000 ) ) ;
#45 = AXIS2_PLACEMENT_3D ( 'NONE', #16, #81, #151 ) ;
#46 = DIRECTION ( 'NONE',  ( 1.000000000000000000, 0.000000000000000000, 0.000000000000000000 ) ) ;
#47 = DATE_AND_TIME ( #165, #163 ) ;
#48 = SECURITY_CLASSIFICATION_LEVEL ( 'unclassified' ) ;
#49 = CC_DESIGN_PERSON_AND_ORGANIZATION_ASSIGNMENT ( #128, #96, ( #63 ) ) ;
#50 = APPROVAL_STATUS ( 'not_yet_approved' ) ;
#51 = LOCAL_TIME ( 11, 40, 19.00000000000000000, #29 ) ;
#52 = DIRECTION ( 'NONE',  ( 1.000000000000000000, 0.000000000000000000, 0.000000000000000000 ) ) ;
#53 = EDGE_CURVE ( 'NONE', #11, #36, #57, .T. ) ;
#54 = ORIENTED_EDGE ( 'NONE', *, *, #77, .F. ) ;
#55 = CARTESIAN_POINT ( 'NONE',  ( 12.69999999999999929, 1.555301434917138433E-15, 0.5000000000000000000 ) ) ;
#56 = VERTEX_POINT ( 'NONE', #133 ) ;
#57 = LINE ( 'NONE', #157, #65 ) ;
#58 =( NAMED_UNIT ( * ) SI_UNIT ( $, .STERADIAN. ) SOLID_ANGLE_UNIT ( ) );
#59 = DATE_AND_TIME ( #121, #140 ) ;
#60 = PLANE ( 'NONE',  #37 ) ;
#61 = MANIFOLD_SOLID_BREP ( 'Boss-Extrude1', #22 ) ;
#62 = CARTESIAN_POINT ( 'NONE',  ( 0.000000000000000000, 0.000000000000000000, 0.5000000000000000000 ) ) ;
#63 = SECURITY_CLASSIFICATION ( '', '', #48 ) ;
#64 = PERSON_AND_ORGANIZATION_ROLE ( 'design_supplier' ) ;
#65 = VECTOR ( 'NONE', #39, 1000.000000000000000 ) ;
#66 = VECTOR ( 'NONE', #117, 1000.000000000000000 ) ;
#67 = PRODUCT_DEFINITION_SHAPE ( 'NONE', 'NONE',  #154 ) ;
#68 = APPROVAL ( #127, 'UNSPECIFIED' ) ;
#69 = CARTESIAN_POINT ( 'NONE',  ( -12.69999999999999929, 0.000000000000000000, 0.5000000000000000000 ) ) ;
#70 = PRODUCT_DEFINITION_FORMATION_WITH_SPECIFIED_SOURCE ( 'ANY', '', #88, .NOT_KNOWN. ) ;
#71 = AXIS2_PLACEMENT_3D ( 'NONE', #32, #94, #44 ) ;
#72 = CYLINDRICAL_SURFACE ( 'NONE', #71, 12.69999999999999929 ) ;
#73 = FACE_OUTER_BOUND ( 'NONE', #89, .T. ) ;
#74 = DIRECTION ( 'NONE',  ( 1.000000000000000000, 0.000000000000000000, 0.000000000000000000 ) ) ;
#75 = CALENDAR_DATE ( 2022, 16, 3 ) ;
#76 = APPLICATION_CONTEXT ( 'configuration controlled 3d designs of mechanical parts and assemblies' ) ;
#77 = EDGE_CURVE ( 'NONE', #38, #11, #116, .T. ) ;
#78 = ORIENTED_EDGE ( 'NONE', *, *, #91, .T. ) ;
#79 = ORIENTED_EDGE ( 'NONE', *, *, #18, .T. ) ;
#80 = CALENDAR_DATE ( 2022, 16, 3 ) ;
#81 = DIRECTION ( 'NONE',  ( -0.000000000000000000, -0.000000000000000000, -1.000000000000000000 ) ) ;
#82 = APPROVAL ( #50, 'UNSPECIFIED' ) ;
#83 = APPROVAL_DATE_TIME ( #134, #26 ) ;
#84 = LOCAL_TIME ( 11, 40, 19.00000000000000000, #23 ) ;
#85 = PERSON_AND_ORGANIZATION ( #146, #98 ) ;
#86 = CC_DESIGN_APPROVAL ( #68, ( #70 ) ) ;
#87 = CC_DESIGN_PERSON_AND_ORGANIZATION_ASSIGNMENT ( #119, #19, ( #154 ) ) ;
#88 = PRODUCT ( 'Web Model 43636_21061', 'Web Model 43636_21061', '', ( #123 ) ) ;
#89 = EDGE_LOOP ( 'NONE', ( #100, #156, #112, #113 ) ) ;
#90 = ORIENTED_EDGE ( 'NONE', *, *, #77, .T. ) ;
#91 = EDGE_CURVE ( 'NONE', #56, #36, #109, .T. ) ;
#92 = APPROVAL_STATUS ( 'not_yet_approved' ) ;
#93 = CC_DESIGN_APPROVAL ( #26, ( #154 ) ) ;
#94 = DIRECTION ( 'NONE',  ( -0.000000000000000000, -0.000000000000000000, -1.000000000000000000 ) ) ;
#95 = DIRECTION ( 'NONE',  ( 0.000000000000000000, 0.000000000000000000, 1.000000000000000000 ) ) ;
#96 = PERSON_AND_ORGANIZATION_ROLE ( 'classification_officer' ) ;
#97 = COORDINATED_UNIVERSAL_TIME_OFFSET ( 5, 0, .BEHIND. ) ;
#98 = ORGANIZATION ( 'UNSPECIFIED', 'UNSPECIFIED', '' ) ;
#99 = CARTESIAN_POINT ( 'NONE',  ( -12.69999999999999929, 0.000000000000000000, 0.5000000000000000000 ) ) ;
#100 = ORIENTED_EDGE ( 'NONE', *, *, #174, .F. ) ;
#101 = APPROVAL_ROLE ( '' ) ;
#102 = DIRECTION ( 'NONE',  ( 0.000000000000000000, 0.000000000000000000, 1.000000000000000000 ) ) ;
#103 = CC_DESIGN_SECURITY_CLASSIFICATION ( #63, ( #70 ) ) ;
#104 = APPLICATION_PROTOCOL_DEFINITION ( 'international standard', 'config_control_design', 1994, #76 ) ;
#105 = DIRECTION ( 'NONE',  ( 0.000000000000000000, 0.000000000000000000, 1.000000000000000000 ) ) ;
#106 = DIRECTION ( 'NONE',  ( 0.000000000000000000, 0.000000000000000000, 1.000000000000000000 ) ) ;
#107 = DATE_TIME_ROLE ( 'creation_date' ) ;
#108 = PERSON_AND_ORGANIZATION ( #146, #98 ) ;
#109 = CIRCLE ( 'NONE', #34, 12.69999999999999929 ) ;
#110 = CARTESIAN_POINT ( 'NONE',  ( 0.000000000000000000, 0.000000000000000000, 0.5000000000000000000 ) ) ;
#111 = AXIS2_PLACEMENT_3D ( 'NONE', #110, #168, #52 ) ;
#112 = ORIENTED_EDGE ( 'NONE', *, *, #152, .T. ) ;
#113 = ORIENTED_EDGE ( 'NONE', *, *, #18, .F. ) ;
#114 = UNCERTAINTY_MEASURE_WITH_UNIT (LENGTH_MEASURE( 1.000000000000000082E-05 ), #161, 'distance_accuracy_value', 'NONE');
#115 = APPROVAL_ROLE ( '' ) ;
#116 = CIRCLE ( 'NONE', #111, 12.69999999999999929 ) ;
#117 = DIRECTION ( 'NONE',  ( -0.000000000000000000, -0.000000000000000000, -1.000000000000000000 ) ) ;
#118 = CALENDAR_DATE ( 2022, 16, 3 ) ;
#119 = PERSON_AND_ORGANIZATION ( #146, #98 ) ;
#120 = PLANE ( 'NONE',  #132 ) ;
#121 = CALENDAR_DATE ( 2022, 16, 3 ) ;
#122 = ADVANCED_FACE ( 'NONE', ( #73 ), #13, .T. ) ;
#123 = MECHANICAL_CONTEXT ( 'NONE', #76, 'mechanical' ) ;
#124 = APPROVAL_PERSON_ORGANIZATION ( #153, #26, #101 ) ;
#125 = CC_DESIGN_PERSON_AND_ORGANIZATION_ASSIGNMENT ( #4, #166, ( #70 ) ) ;
#126 = AXIS2_PLACEMENT_3D ( 'NONE', #158, #102, #136 ) ;
#127 = APPROVAL_STATUS ( 'not_yet_approved' ) ;
#128 = PERSON_AND_ORGANIZATION ( #146, #98 ) ;
#129 = ADVANCED_FACE ( 'NONE', ( #30 ), #72, .T. ) ;
#130 = APPROVAL_DATE_TIME ( #8, #82 ) ;
#131 = EDGE_LOOP ( 'NONE', ( #10, #54, #79, #78 ) ) ;
#132 = AXIS2_PLACEMENT_3D ( 'NONE', #62, #95, #147 ) ;
#133 = CARTESIAN_POINT ( 'NONE',  ( -12.69999999999999929, 0.000000000000000000, 0.000000000000000000 ) ) ;
#134 = DATE_AND_TIME ( #80, #51 ) ;
#135 = DESIGN_CONTEXT ( 'detailed design', #139, 'design' ) ;
#136 = DIRECTION ( 'NONE',  ( 1.000000000000000000, 0.000000000000000000, 0.000000000000000000 ) ) ;
#137 = DIRECTION ( 'NONE',  ( 1.000000000000000000, 0.000000000000000000, 0.000000000000000000 ) ) ;
#138 = CIRCLE ( 'NONE', #3, 12.69999999999999929 ) ;
#139 = APPLICATION_CONTEXT ( 'configuration controlled 3d designs of mechanical parts and assemblies' ) ;
#140 = LOCAL_TIME ( 11, 40, 19.00000000000000000, #167 ) ;
#141 = CC_DESIGN_PERSON_AND_ORGANIZATION_ASSIGNMENT ( #108, #64, ( #70 ) ) ;
#142 = APPROVAL_ROLE ( '' ) ;
#143 = LOCAL_TIME ( 11, 40, 19.00000000000000000, #97 ) ;
#144 = ADVANCED_FACE ( 'NONE', ( #173 ), #60, .F. ) ;
#145 = LINE ( 'NONE', #69, #66 ) ;
#146 = PERSON ( 'UNSPECIFIED', 'UNSPECIFIED', 'UNSPECIFIED', ('UNSPECIFIED'), ('UNSPECIFIED'), ('UNSPECIFIED') ) ;
#147 = DIRECTION ( 'NONE',  ( 1.000000000000000000, 0.000000000000000000, -0.000000000000000000 ) ) ;
#148 = SHAPE_DEFINITION_REPRESENTATION ( #67, #6 ) ;
#149 = CARTESIAN_POINT ( 'NONE',  ( 0.000000000000000000, 0.000000000000000000, 0.5000000000000000000 ) ) ;
#150 = CARTESIAN_POINT ( 'NONE',  ( 0.000000000000000000, 0.000000000000000000, 0.000000000000000000 ) ) ;
#151 = DIRECTION ( 'NONE',  ( -1.000000000000000000, 0.000000000000000000, 0.000000000000000000 ) ) ;
#152 = EDGE_CURVE ( 'NONE', #36, #56, #12, .T. ) ;
#153 = PERSON_AND_ORGANIZATION ( #146, #98 ) ;
#154 = PRODUCT_DEFINITION ( 'UNKNOWN', '', #70, #135 ) ;
#155 = APPROVAL_PERSON_ORGANIZATION ( #28, #82, #115 ) ;
#156 = ORIENTED_EDGE ( 'NONE', *, *, #53, .T. ) ;
#157 = CARTESIAN_POINT ( 'NONE',  ( 12.69999999999999929, 1.555301434917138433E-15, 0.5000000000000000000 ) ) ;
#158 = CARTESIAN_POINT ( 'NONE',  ( 0.000000000000000000, 0.000000000000000000, 0.000000000000000000 ) ) ;
#159 = ADVANCED_FACE ( 'NONE', ( #31 ), #120, .T. ) ;
#160 = PERSON_AND_ORGANIZATION ( #146, #98 ) ;
#161 =( LENGTH_UNIT ( ) NAMED_UNIT ( * ) SI_UNIT ( .MILLI., .METRE. ) );
#162 = PRODUCT_RELATED_PRODUCT_CATEGORY ( 'detail', '', ( #88 ) ) ;
#163 = LOCAL_TIME ( 11, 40, 19.00000000000000000, #5 ) ;
#164 = AXIS2_PLACEMENT_3D ( 'NONE', #40, #105, #46 ) ;
#165 = CALENDAR_DATE ( 2022, 16, 3 ) ;
#166 = PERSON_AND_ORGANIZATION_ROLE ( 'creator' ) ;
#167 = COORDINATED_UNIVERSAL_TIME_OFFSET ( 5, 0, .BEHIND. ) ;
#168 = DIRECTION ( 'NONE',  ( 0.000000000000000000, 0.000000000000000000, 1.000000000000000000 ) ) ;
#169 = CC_DESIGN_DATE_AND_TIME_ASSIGNMENT ( #17, #107, ( #154 ) ) ;
#170 = ORIENTED_EDGE ( 'NONE', *, *, #174, .T. ) ;
#171 = ORIENTED_EDGE ( 'NONE', *, *, #91, .F. ) ;
#172 = CARTESIAN_POINT ( 'NONE',  ( 12.69999999999999929, 1.555301434917138433E-15, 0.000000000000000000 ) ) ;
#173 = FACE_OUTER_BOUND ( 'NONE', #24, .T. ) ;
#174 = EDGE_CURVE ( 'NONE', #11, #38, #138, .T. ) ;
#175 = DIRECTION ( 'NONE',  ( 0.000000000000000000, 0.000000000000000000, 1.000000000000000000 ) ) ;
ENDSEC;
END-ISO-10303-21;
