ISO-10303-21;
HEADER;
FILE_DESCRIPTION (( 'STEP AP203' ),
    '1' );
FILE_NAME ('Web Model 83476.STEP',
    '2017-02-01T15:23:57',
    ( '' ),
    ( '' ),
    'SwSTEP 2.0',
    'SolidWorks 2016',
    '' );
FILE_SCHEMA (( 'CONFIG_CONTROL_DESIGN' ));
ENDSEC;

DATA;
#1 = DATE_TIME_ROLE ( 'creation_date' ) ;
#2 = EDGE_LOOP ( 'NONE', ( #145, #165, #109, #155 ) ) ;
#3 = DIRECTION ( 'NONE',  ( 1.000000000000000000, 0.0000000000000000000, 0.0000000000000000000 ) ) ;
#4 = CC_DESIGN_APPROVAL ( #168, ( #148 ) ) ;
#5 = DIRECTION ( 'NONE',  ( 0.0000000000000000000, 0.0000000000000000000, 1.000000000000000000 ) ) ;
#6 = AXIS2_PLACEMENT_3D ( 'NONE', #123, #79, #138 ) ;
#7 = EDGE_LOOP ( 'NONE', ( #139, #117 ) ) ;
#8 = FACE_OUTER_BOUND ( 'NONE', #87, .T. ) ;
#9 = PRODUCT ( 'Web Model 83476', 'Web Model 83476', '', ( #26 ) ) ;
#10 = DATE_AND_TIME ( #161, #72 ) ;
#11 = DIRECTION ( 'NONE',  ( -0.0000000000000000000, -0.0000000000000000000, -1.000000000000000000 ) ) ;
#12 = VERTEX_POINT ( 'NONE', #103 ) ;
#13 = APPROVAL_DATE_TIME ( #160, #168 ) ;
#14 = APPROVAL_ROLE ( '' ) ;
#15 = CYLINDRICAL_SURFACE ( 'NONE', #110, 20.00000000000000000 ) ;
#16 = CARTESIAN_POINT ( 'NONE',  ( 0.0000000000000000000, 0.0000000000000000000, 4.000000000000000000 ) ) ;
#17 = PLANE ( 'NONE',  #46 ) ;
#18 = EDGE_CURVE ( 'NONE', #12, #35, #65, .T. ) ;
#19 = UNCERTAINTY_MEASURE_WITH_UNIT (LENGTH_MEASURE( 1.000000000000000100E-005 ), #141, 'distance_accuracy_value', 'NONE');
#20 = PERSON_AND_ORGANIZATION ( #95, #144 ) ;
#21 = CARTESIAN_POINT ( 'NONE',  ( -20.00000000000000000, 0.0000000000000000000, 4.000000000000000000 ) ) ;
#22 = CALENDAR_DATE ( 2017, 1, 2 ) ;
#23 = DIRECTION ( 'NONE',  ( 0.0000000000000000000, 0.0000000000000000000, 1.000000000000000000 ) ) ;
#24 = PRODUCT_DEFINITION ( 'UNKNOWN', '', #148, #28 ) ;
#25 = DIRECTION ( 'NONE',  ( -0.0000000000000000000, -0.0000000000000000000, -1.000000000000000000 ) ) ;
#26 = MECHANICAL_CONTEXT ( 'NONE', #98, 'mechanical' ) ;
#27 = DATE_TIME_ROLE ( 'classification_date' ) ;
#28 = DESIGN_CONTEXT ( 'detailed design', #62, 'design' ) ;
#29 = EDGE_CURVE ( 'NONE', #133, #100, #101, .T. ) ;
#30 = DIRECTION ( 'NONE',  ( -0.0000000000000000000, -0.0000000000000000000, -1.000000000000000000 ) ) ;
#31 = CALENDAR_DATE ( 2017, 1, 2 ) ;
#32 = DIRECTION ( 'NONE',  ( -1.000000000000000000, 0.0000000000000000000, 0.0000000000000000000 ) ) ;
#33 = APPROVAL ( #127, 'UNSPECIFIED' ) ;
#34 = CC_DESIGN_SECURITY_CLASSIFICATION ( #97, ( #148 ) ) ;
#35 = VERTEX_POINT ( 'NONE', #56 ) ;
#36 = AXIS2_PLACEMENT_3D ( 'NONE', #16, #57, #132 ) ;
#37 =( GEOMETRIC_REPRESENTATION_CONTEXT ( 3 ) GLOBAL_UNCERTAINTY_ASSIGNED_CONTEXT ( ( #19 ) ) GLOBAL_UNIT_ASSIGNED_CONTEXT ( ( #141, #67, #174 ) ) REPRESENTATION_CONTEXT ( 'NONE', 'WORKASPACE' ) );
#38 = APPLICATION_PROTOCOL_DEFINITION ( 'international standard', 'config_control_design', 1994, #62 ) ;
#39 = SECURITY_CLASSIFICATION_LEVEL ( 'unclassified' ) ;
#40 = APPROVAL_DATE_TIME ( #10, #172 ) ;
#41 = CC_DESIGN_APPROVAL ( #33, ( #24 ) ) ;
#42 = ORIENTED_EDGE ( 'NONE', *, *, #18, .F. ) ;
#43 = VECTOR ( 'NONE', #11, 1000.000000000000000 ) ;
#44 = APPLICATION_PROTOCOL_DEFINITION ( 'international standard', 'config_control_design', 1994, #98 ) ;
#45 = DIRECTION ( 'NONE',  ( -0.0000000000000000000, -0.0000000000000000000, -1.000000000000000000 ) ) ;
#46 = AXIS2_PLACEMENT_3D ( 'NONE', #116, #5, #159 ) ;
#47 = COORDINATED_UNIVERSAL_TIME_OFFSET ( 5, 0, .BEHIND. ) ;
#48 = FACE_OUTER_BOUND ( 'NONE', #7, .T. ) ;
#49 = ORIENTED_EDGE ( 'NONE', *, *, #163, .F. ) ;
#50 = LOCAL_TIME ( 10, 23, 57.00000000000000000, #80 ) ;
#51 = ORIENTED_EDGE ( 'NONE', *, *, #169, .F. ) ;
#52 = LINE ( 'NONE', #21, #85 ) ;
#53 = DIRECTION ( 'NONE',  ( -1.000000000000000000, 0.0000000000000000000, 0.0000000000000000000 ) ) ;
#54 = PERSON_AND_ORGANIZATION_ROLE ( 'creator' ) ;
#55 = COORDINATED_UNIVERSAL_TIME_OFFSET ( 5, 0, .BEHIND. ) ;
#56 = CARTESIAN_POINT ( 'NONE',  ( -20.00000000000000000, 0.0000000000000000000, 4.000000000000000000 ) ) ;
#57 = DIRECTION ( 'NONE',  ( 0.0000000000000000000, 0.0000000000000000000, 1.000000000000000000 ) ) ;
#58 = CARTESIAN_POINT ( 'NONE',  ( 0.0000000000000000000, 0.0000000000000000000, 4.000000000000000000 ) ) ;
#59 = LINE ( 'NONE', #78, #43 ) ;
#60 = CIRCLE ( 'NONE', #36, 20.00000000000000000 ) ;
#61 = PERSON_AND_ORGANIZATION ( #95, #144 ) ;
#62 = APPLICATION_CONTEXT ( 'configuration controlled 3d designs of mechanical parts and assemblies' ) ;
#63 = CARTESIAN_POINT ( 'NONE',  ( 0.0000000000000000000, 0.0000000000000000000, 4.000000000000000000 ) ) ;
#64 = EDGE_CURVE ( 'NONE', #35, #12, #60, .T. ) ;
#65 = CIRCLE ( 'NONE', #134, 20.00000000000000000 ) ;
#66 = DIRECTION ( 'NONE',  ( 1.000000000000000000, 0.0000000000000000000, -0.0000000000000000000 ) ) ;
#67 =( NAMED_UNIT ( * ) PLANE_ANGLE_UNIT ( ) SI_UNIT ( $, .RADIAN. ) );
#68 = APPROVAL_ROLE ( '' ) ;
#69 = PERSON_AND_ORGANIZATION_ROLE ( 'creator' ) ;
#70 = CLOSED_SHELL ( 'NONE', ( #94, #113, #151, #89 ) ) ;
#71 = PERSON_AND_ORGANIZATION_ROLE ( 'classification_officer' ) ;
#72 = LOCAL_TIME ( 10, 23, 57.00000000000000000, #120 ) ;
#73 = MANIFOLD_SOLID_BREP ( 'Extrude1', #70 ) ;
#74 = APPROVAL_ROLE ( '' ) ;
#75 = DIRECTION ( 'NONE',  ( 0.0000000000000000000, 0.0000000000000000000, 1.000000000000000000 ) ) ;
#76 = AXIS2_PLACEMENT_3D ( 'NONE', #92, #75, #66 ) ;
#77 = PERSON_AND_ORGANIZATION ( #95, #144 ) ;
#78 = CARTESIAN_POINT ( 'NONE',  ( 20.00000000000000000, 2.449293598294706500E-015, 4.000000000000000000 ) ) ;
#79 = DIRECTION ( 'NONE',  ( 0.0000000000000000000, 0.0000000000000000000, 1.000000000000000000 ) ) ;
#80 = COORDINATED_UNIVERSAL_TIME_OFFSET ( 5, 0, .BEHIND. ) ;
#81 = PRODUCT_RELATED_PRODUCT_CATEGORY ( 'detail', '', ( #9 ) ) ;
#82 = CC_DESIGN_PERSON_AND_ORGANIZATION_ASSIGNMENT ( #77, #69, ( #24 ) ) ;
#83 = FACE_OUTER_BOUND ( 'NONE', #2, .T. ) ;
#84 = CARTESIAN_POINT ( 'NONE',  ( 0.0000000000000000000, 0.0000000000000000000, 4.000000000000000000 ) ) ;
#85 = VECTOR ( 'NONE', #25, 1000.000000000000000 ) ;
#86 = APPROVAL_PERSON_ORGANIZATION ( #129, #168, #14 ) ;
#87 = EDGE_LOOP ( 'NONE', ( #51, #99 ) ) ;
#88 = APPROVAL_PERSON_ORGANIZATION ( #158, #33, #74 ) ;
#89 = ADVANCED_FACE ( 'NONE', ( #8 ), #17, .F. ) ;
#90 = PERSON_AND_ORGANIZATION ( #95, #144 ) ;
#91 = PLANE ( 'NONE',  #76 ) ;
#92 = CARTESIAN_POINT ( 'NONE',  ( 0.0000000000000000000, 0.0000000000000000000, 4.000000000000000000 ) ) ;
#93 = DIRECTION ( 'NONE',  ( 1.000000000000000000, 0.0000000000000000000, 0.0000000000000000000 ) ) ;
#94 = ADVANCED_FACE ( 'NONE', ( #105 ), #15, .T. ) ;
#95 = PERSON ( 'UNSPECIFIED', 'UNSPECIFIED', 'UNSPECIFIED', ('UNSPECIFIED'), ('UNSPECIFIED'), ('UNSPECIFIED') ) ;
#96 = LOCAL_TIME ( 10, 23, 57.00000000000000000, #102 ) ;
#97 = SECURITY_CLASSIFICATION ( '', '', #39 ) ;
#98 = APPLICATION_CONTEXT ( 'configuration controlled 3d designs of mechanical parts and assemblies' ) ;
#99 = ORIENTED_EDGE ( 'NONE', *, *, #29, .F. ) ;
#100 = VERTEX_POINT ( 'NONE', #121 ) ;
#101 = CIRCLE ( 'NONE', #166, 20.00000000000000000 ) ;
#102 = COORDINATED_UNIVERSAL_TIME_OFFSET ( 5, 0, .BEHIND. ) ;
#103 = CARTESIAN_POINT ( 'NONE',  ( 20.00000000000000000, 2.449293598294706500E-015, 4.000000000000000000 ) ) ;
#104 = ADVANCED_BREP_SHAPE_REPRESENTATION ( 'Web Model 83476', ( #73, #126 ), #37 ) ;
#105 = FACE_OUTER_BOUND ( 'NONE', #135, .T. ) ;
#106 = CYLINDRICAL_SURFACE ( 'NONE', #115, 20.00000000000000000 ) ;
#107 = ORIENTED_EDGE ( 'NONE', *, *, #156, .T. ) ;
#108 = SHAPE_DEFINITION_REPRESENTATION ( #150, #104 ) ;
#109 = ORIENTED_EDGE ( 'NONE', *, *, #163, .T. ) ;
#110 = AXIS2_PLACEMENT_3D ( 'NONE', #84, #30, #32 ) ;
#111 = CC_DESIGN_DATE_AND_TIME_ASSIGNMENT ( #143, #27, ( #97 ) ) ;
#112 = CARTESIAN_POINT ( 'NONE',  ( 0.0000000000000000000, 0.0000000000000000000, 0.0000000000000000000 ) ) ;
#113 = ADVANCED_FACE ( 'NONE', ( #83 ), #106, .T. ) ;
#114 = PERSON_AND_ORGANIZATION_ROLE ( 'design_supplier' ) ;
#115 = AXIS2_PLACEMENT_3D ( 'NONE', #63, #45, #53 ) ;
#116 = CARTESIAN_POINT ( 'NONE',  ( 0.0000000000000000000, 0.0000000000000000000, 0.0000000000000000000 ) ) ;
#117 = ORIENTED_EDGE ( 'NONE', *, *, #18, .T. ) ;
#118 = CC_DESIGN_PERSON_AND_ORGANIZATION_ASSIGNMENT ( #90, #54, ( #148 ) ) ;
#119 = PERSON_AND_ORGANIZATION ( #95, #144 ) ;
#120 = COORDINATED_UNIVERSAL_TIME_OFFSET ( 5, 0, .BEHIND. ) ;
#121 = CARTESIAN_POINT ( 'NONE',  ( -20.00000000000000000, 0.0000000000000000000, 0.0000000000000000000 ) ) ;
#122 = ORIENTED_EDGE ( 'NONE', *, *, #29, .T. ) ;
#123 = CARTESIAN_POINT ( 'NONE',  ( 0.0000000000000000000, 0.0000000000000000000, 0.0000000000000000000 ) ) ;
#124 = APPROVAL_DATE_TIME ( #173, #33 ) ;
#125 = CALENDAR_DATE ( 2017, 1, 2 ) ;
#126 = AXIS2_PLACEMENT_3D ( 'NONE', #112, #23, #93 ) ;
#127 = APPROVAL_STATUS ( 'not_yet_approved' ) ;
#128 = APPROVAL_STATUS ( 'not_yet_approved' ) ;
#129 = PERSON_AND_ORGANIZATION ( #95, #144 ) ;
#130 = LOCAL_TIME ( 10, 23, 57.00000000000000000, #47 ) ;
#131 = CC_DESIGN_PERSON_AND_ORGANIZATION_ASSIGNMENT ( #119, #114, ( #148 ) ) ;
#132 = DIRECTION ( 'NONE',  ( 1.000000000000000000, 0.0000000000000000000, 0.0000000000000000000 ) ) ;
#133 = VERTEX_POINT ( 'NONE', #153 ) ;
#134 = AXIS2_PLACEMENT_3D ( 'NONE', #58, #162, #3 ) ;
#135 = EDGE_LOOP ( 'NONE', ( #42, #107, #122, #49 ) ) ;
#136 = CC_DESIGN_DATE_AND_TIME_ASSIGNMENT ( #170, #1, ( #24 ) ) ;
#137 = APPROVAL_PERSON_ORGANIZATION ( #61, #172, #68 ) ;
#138 = DIRECTION ( 'NONE',  ( 1.000000000000000000, 0.0000000000000000000, 0.0000000000000000000 ) ) ;
#139 = ORIENTED_EDGE ( 'NONE', *, *, #64, .T. ) ;
#140 = PERSON_AND_ORGANIZATION ( #95, #144 ) ;
#141 =( LENGTH_UNIT ( ) NAMED_UNIT ( * ) SI_UNIT ( .MILLI., .METRE. ) );
#142 = APPROVAL_STATUS ( 'not_yet_approved' ) ;
#143 = DATE_AND_TIME ( #31, #96 ) ;
#144 = ORGANIZATION ( 'UNSPECIFIED', 'UNSPECIFIED', '' ) ;
#145 = ORIENTED_EDGE ( 'NONE', *, *, #156, .F. ) ;
#146 = DIRECTION ( 'NONE',  ( 1.000000000000000000, 0.0000000000000000000, 0.0000000000000000000 ) ) ;
#147 = CARTESIAN_POINT ( 'NONE',  ( 0.0000000000000000000, 0.0000000000000000000, 0.0000000000000000000 ) ) ;
#148 = PRODUCT_DEFINITION_FORMATION_WITH_SPECIFIED_SOURCE ( 'ANY', '', #9, .NOT_KNOWN. ) ;
#149 = CC_DESIGN_PERSON_AND_ORGANIZATION_ASSIGNMENT ( #140, #71, ( #97 ) ) ;
#150 = PRODUCT_DEFINITION_SHAPE ( 'NONE', 'NONE',  #24 ) ;
#151 = ADVANCED_FACE ( 'NONE', ( #48 ), #91, .T. ) ;
#152 = CALENDAR_DATE ( 2017, 1, 2 ) ;
#153 = CARTESIAN_POINT ( 'NONE',  ( 20.00000000000000000, 2.449293598294706500E-015, 0.0000000000000000000 ) ) ;
#154 = CC_DESIGN_APPROVAL ( #172, ( #97 ) ) ;
#155 = ORIENTED_EDGE ( 'NONE', *, *, #169, .T. ) ;
#156 = EDGE_CURVE ( 'NONE', #12, #133, #59, .T. ) ;
#157 = DIRECTION ( 'NONE',  ( 0.0000000000000000000, 0.0000000000000000000, 1.000000000000000000 ) ) ;
#158 = PERSON_AND_ORGANIZATION ( #95, #144 ) ;
#159 = DIRECTION ( 'NONE',  ( 1.000000000000000000, 0.0000000000000000000, -0.0000000000000000000 ) ) ;
#160 = DATE_AND_TIME ( #22, #50 ) ;
#161 = CALENDAR_DATE ( 2017, 1, 2 ) ;
#162 = DIRECTION ( 'NONE',  ( 0.0000000000000000000, 0.0000000000000000000, 1.000000000000000000 ) ) ;
#163 = EDGE_CURVE ( 'NONE', #35, #100, #52, .T. ) ;
#164 = CIRCLE ( 'NONE', #6, 20.00000000000000000 ) ;
#165 = ORIENTED_EDGE ( 'NONE', *, *, #64, .F. ) ;
#166 = AXIS2_PLACEMENT_3D ( 'NONE', #147, #157, #146 ) ;
#167 = LOCAL_TIME ( 10, 23, 57.00000000000000000, #55 ) ;
#168 = APPROVAL ( #142, 'UNSPECIFIED' ) ;
#169 = EDGE_CURVE ( 'NONE', #100, #133, #164, .T. ) ;
#170 = DATE_AND_TIME ( #152, #130 ) ;
#171 = CC_DESIGN_PERSON_AND_ORGANIZATION_ASSIGNMENT ( #20, #175, ( #9 ) ) ;
#172 = APPROVAL ( #128, 'UNSPECIFIED' ) ;
#173 = DATE_AND_TIME ( #125, #167 ) ;
#174 =( NAMED_UNIT ( * ) SI_UNIT ( $, .STERADIAN. ) SOLID_ANGLE_UNIT ( ) );
#175 = PERSON_AND_ORGANIZATION_ROLE ( 'design_owner' ) ;
ENDSEC;
END-ISO-10303-21;
