ISO-10303-21;
HEADER;
FILE_DESCRIPTION (( 'STEP AP203' ),
    '1' );
FILE_NAME ('Web Model 43772_43777.step',
    '2018-03-12T19:20:37',
    ( '' ),
    ( '' ),
    'SwSTEP 2.0',
    'SolidWorks 2016',
    '' );
FILE_SCHEMA (( 'CONFIG_CONTROL_DESIGN' ));
ENDSEC;

DATA;
#1 = LINE ( 'NONE', #97, #187 ) ;
#2 = APPROVAL_PERSON_ORGANIZATION ( #90, #159, #191 ) ;
#3 = CARTESIAN_POINT ( 'NONE',  ( 3.000000000000000000, 6.350000000000000500, 6.349999999999997900 ) ) ;
#4 = LINE ( 'NONE', #136, #215 ) ;
#5 = COORDINATED_UNIVERSAL_TIME_OFFSET ( 5, 0, .BEHIND. ) ;
#6 = FACE_OUTER_BOUND ( 'NONE', #133, .T. ) ;
#7 = CARTESIAN_POINT ( 'NONE',  ( 3.000000000000000000, 6.350000000000000500, 6.349999999999997900 ) ) ;
#8 = ORIENTED_EDGE ( 'NONE', *, *, #166, .T. ) ;
#9 = CARTESIAN_POINT ( 'NONE',  ( -3.000000000000000000, 6.350000000000000500, 6.349999999999997900 ) ) ;
#10 = DIRECTION ( 'NONE',  ( 0.0000000000000000000, -1.000000000000000000, -2.048885995248197400E-016 ) ) ;
#11 = VERTEX_POINT ( 'NONE', #36 ) ;
#12 = CARTESIAN_POINT ( 'NONE',  ( 0.0000000000000000000, 0.0000000000000000000, 0.0000000000000000000 ) ) ;
#13 = DATE_TIME_ROLE ( 'creation_date' ) ;
#14 = LINE ( 'NONE', #129, #34 ) ;
#15 = AXIS2_PLACEMENT_3D ( 'NONE', #12, #87, #195 ) ;
#16 = DATE_AND_TIME ( #38, #52 ) ;
#17 = PERSON_AND_ORGANIZATION ( #105, #59 ) ;
#18 = CARTESIAN_POINT ( 'NONE',  ( -3.000000000000000000, -6.349999999999997900, -6.350000000000002300 ) ) ;
#19 = EDGE_CURVE ( 'NONE', #222, #128, #193, .T. ) ;
#20 = VECTOR ( 'NONE', #56, 1000.000000000000000 ) ;
#21 = DIRECTION ( 'NONE',  ( -1.000000000000000000, -0.0000000000000000000, -0.0000000000000000000 ) ) ;
#22 = CARTESIAN_POINT ( 'NONE',  ( 3.000000000000000000, -6.349999999999997900, 6.350000000000000500 ) ) ;
#23 = DIRECTION ( 'NONE',  ( -1.000000000000000000, -0.0000000000000000000, -0.0000000000000000000 ) ) ;
#24 = VERTEX_POINT ( 'NONE', #162 ) ;
#25 = LINE ( 'NONE', #62, #161 ) ;
#26 = APPLICATION_PROTOCOL_DEFINITION ( 'international standard', 'config_control_design', 1994, #49 ) ;
#27 = CALENDAR_DATE ( 2018, 12, 3 ) ;
#28 = EDGE_CURVE ( 'NONE', #24, #51, #14, .T. ) ;
#29 = PERSON_AND_ORGANIZATION_ROLE ( 'design_supplier' ) ;
#30 = PERSON_AND_ORGANIZATION ( #105, #59 ) ;
#31 = VERTEX_POINT ( 'NONE', #199 ) ;
#32 = ORIENTED_EDGE ( 'NONE', *, *, #197, .F. ) ;
#33 = CC_DESIGN_APPROVAL ( #159, ( #147 ) ) ;
#34 = VECTOR ( 'NONE', #132, 1000.000000000000000 ) ;
#35 = CALENDAR_DATE ( 2018, 12, 3 ) ;
#36 = CARTESIAN_POINT ( 'NONE',  ( 3.000000000000000000, 6.350000000000000500, -6.349999999999999600 ) ) ;
#37 = CLOSED_SHELL ( 'NONE', ( #121, #190, #196, #156, #210, #46 ) ) ;
#38 = CALENDAR_DATE ( 2018, 12, 3 ) ;
#39 = EDGE_CURVE ( 'NONE', #222, #173, #116, .T. ) ;
#40 = DIRECTION ( 'NONE',  ( 0.0000000000000000000, -2.048885995248197400E-016, 1.000000000000000000 ) ) ;
#41 = CARTESIAN_POINT ( 'NONE',  ( 3.000000000000000000, 6.350000000000000500, 6.349999999999997900 ) ) ;
#42 = CC_DESIGN_PERSON_AND_ORGANIZATION_ASSIGNMENT ( #30, #29, ( #147 ) ) ;
#43 = PLANE ( 'NONE',  #74 ) ;
#44 = DIRECTION ( 'NONE',  ( -0.0000000000000000000, 1.000000000000000000, 2.048885995248197400E-016 ) ) ;
#45 = PERSON_AND_ORGANIZATION_ROLE ( 'design_owner' ) ;
#46 = ADVANCED_FACE ( 'NONE', ( #201 ), #180, .F. ) ;
#47 = VECTOR ( 'NONE', #150, 1000.000000000000000 ) ;
#48 = CC_DESIGN_PERSON_AND_ORGANIZATION_ASSIGNMENT ( #184, #235, ( #96 ) ) ;
#49 = APPLICATION_CONTEXT ( 'configuration controlled 3d designs of mechanical parts and assemblies' ) ;
#50 = DATE_AND_TIME ( #119, #189 ) ;
#51 = VERTEX_POINT ( 'NONE', #18 ) ;
#52 = LOCAL_TIME ( 15, 20, 37.00000000000000000, #144 ) ;
#53 = VECTOR ( 'NONE', #113, 1000.000000000000000 ) ;
#54 = EDGE_CURVE ( 'NONE', #51, #85, #216, .T. ) ;
#55 = UNCERTAINTY_MEASURE_WITH_UNIT (LENGTH_MEASURE( 1.000000000000000100E-005 ), #120, 'distance_accuracy_value', 'NONE');
#56 = DIRECTION ( 'NONE',  ( 0.0000000000000000000, -1.000000000000000000, 2.048885995248197400E-016 ) ) ;
#57 = EDGE_LOOP ( 'NONE', ( #76, #131, #106, #122 ) ) ;
#58 = CARTESIAN_POINT ( 'NONE',  ( -3.000000000000000000, 6.350000000000000500, -6.349999999999999600 ) ) ;
#59 = ORGANIZATION ( 'UNSPECIFIED', 'UNSPECIFIED', '' ) ;
#60 = APPROVAL ( #68, 'UNSPECIFIED' ) ;
#61 = DIRECTION ( 'NONE',  ( 0.0000000000000000000, -0.0000000000000000000, -1.000000000000000000 ) ) ;
#62 = CARTESIAN_POINT ( 'NONE',  ( 3.000000000000000000, 6.350000000000000500, 6.349999999999997900 ) ) ;
#63 = PLANE ( 'NONE',  #237 ) ;
#64 = ORIENTED_EDGE ( 'NONE', *, *, #126, .T. ) ;
#65 = ORIENTED_EDGE ( 'NONE', *, *, #207, .F. ) ;
#66 = DIRECTION ( 'NONE',  ( 0.0000000000000000000, 0.0000000000000000000, -1.000000000000000000 ) ) ;
#67 = CALENDAR_DATE ( 2018, 12, 3 ) ;
#68 = APPROVAL_STATUS ( 'not_yet_approved' ) ;
#69 = VECTOR ( 'NONE', #23, 1000.000000000000000 ) ;
#70 = VECTOR ( 'NONE', #44, 1000.000000000000000 ) ;
#71 =( GEOMETRIC_REPRESENTATION_CONTEXT ( 3 ) GLOBAL_UNCERTAINTY_ASSIGNED_CONTEXT ( ( #55 ) ) GLOBAL_UNIT_ASSIGNED_CONTEXT ( ( #120, #232, #172 ) ) REPRESENTATION_CONTEXT ( 'NONE', 'WORKASPACE' ) );
#72 = VECTOR ( 'NONE', #21, 1000.000000000000000 ) ;
#73 = APPROVAL_DATE_TIME ( #16, #86 ) ;
#74 = AXIS2_PLACEMENT_3D ( 'NONE', #203, #137, #66 ) ;
#75 = CC_DESIGN_APPROVAL ( #60, ( #96 ) ) ;
#76 = ORIENTED_EDGE ( 'NONE', *, *, #197, .T. ) ;
#77 = LINE ( 'NONE', #95, #69 ) ;
#78 = ORIENTED_EDGE ( 'NONE', *, *, #221, .T. ) ;
#79 = LOCAL_TIME ( 15, 20, 37.00000000000000000, #236 ) ;
#80 = DIRECTION ( 'NONE',  ( 0.0000000000000000000, -0.0000000000000000000, 1.000000000000000000 ) ) ;
#81 = VECTOR ( 'NONE', #223, 1000.000000000000000 ) ;
#82 = PLANE ( 'NONE',  #154 ) ;
#83 = DATE_AND_TIME ( #27, #143 ) ;
#84 = APPROVAL_STATUS ( 'not_yet_approved' ) ;
#85 = VERTEX_POINT ( 'NONE', #165 ) ;
#86 = APPROVAL ( #138, 'UNSPECIFIED' ) ;
#87 = DIRECTION ( 'NONE',  ( 0.0000000000000000000, 0.0000000000000000000, 1.000000000000000000 ) ) ;
#88 = ORIENTED_EDGE ( 'NONE', *, *, #39, .T. ) ;
#89 = LOCAL_TIME ( 15, 20, 37.00000000000000000, #107 ) ;
#90 = PERSON_AND_ORGANIZATION ( #105, #59 ) ;
#91 = ORIENTED_EDGE ( 'NONE', *, *, #19, .T. ) ;
#92 = PRODUCT_RELATED_PRODUCT_CATEGORY ( 'detail', '', ( #115 ) ) ;
#93 = CARTESIAN_POINT ( 'NONE',  ( -3.000000000000000000, 0.0000000000000000000, 0.0000000000000000000 ) ) ;
#94 = PERSON_AND_ORGANIZATION ( #105, #59 ) ;
#95 = CARTESIAN_POINT ( 'NONE',  ( 3.000000000000000000, -6.349999999999997900, -6.350000000000002300 ) ) ;
#96 = SECURITY_CLASSIFICATION ( '', '', #103 ) ;
#97 = CARTESIAN_POINT ( 'NONE',  ( 3.000000000000000000, 6.350000000000000500, -6.349999999999999600 ) ) ;
#98 = PLANE ( 'NONE',  #100 ) ;
#99 = DIRECTION ( 'NONE',  ( -1.000000000000000000, -0.0000000000000000000, -0.0000000000000000000 ) ) ;
#100 = AXIS2_PLACEMENT_3D ( 'NONE', #182, #40, #10 ) ;
#101 = APPROVAL_ROLE ( '' ) ;
#102 = PERSON_AND_ORGANIZATION ( #105, #59 ) ;
#103 = SECURITY_CLASSIFICATION_LEVEL ( 'unclassified' ) ;
#104 = APPROVAL_PERSON_ORGANIZATION ( #127, #86, #169 ) ;
#105 = PERSON ( 'UNSPECIFIED', 'UNSPECIFIED', 'UNSPECIFIED', ('UNSPECIFIED'), ('UNSPECIFIED'), ('UNSPECIFIED') ) ;
#106 = ORIENTED_EDGE ( 'NONE', *, *, #126, .F. ) ;
#107 = COORDINATED_UNIVERSAL_TIME_OFFSET ( 5, 0, .BEHIND. ) ;
#108 = PRODUCT_DEFINITION ( 'UNKNOWN', '', #147, #175 ) ;
#109 = DIRECTION ( 'NONE',  ( 0.0000000000000000000, 0.0000000000000000000, -1.000000000000000000 ) ) ;
#110 = APPROVAL_DATE_TIME ( #83, #159 ) ;
#111 = CC_DESIGN_DATE_AND_TIME_ASSIGNMENT ( #50, #13, ( #108 ) ) ;
#112 = FACE_OUTER_BOUND ( 'NONE', #57, .T. ) ;
#113 = DIRECTION ( 'NONE',  ( -1.000000000000000000, -0.0000000000000000000, -0.0000000000000000000 ) ) ;
#114 = ORIENTED_EDGE ( 'NONE', *, *, #217, .F. ) ;
#115 = PRODUCT ( 'Web Model 43772_43777', 'Web Model 43772_43777', '', ( #117 ) ) ;
#116 = LINE ( 'NONE', #146, #20 ) ;
#117 = MECHANICAL_CONTEXT ( 'NONE', #212, 'mechanical' ) ;
#118 = ORIENTED_EDGE ( 'NONE', *, *, #221, .F. ) ;
#119 = CALENDAR_DATE ( 2018, 12, 3 ) ;
#120 =( LENGTH_UNIT ( ) NAMED_UNIT ( * ) SI_UNIT ( .MILLI., .METRE. ) );
#121 = ADVANCED_FACE ( 'NONE', ( #6 ), #63, .F. ) ;
#122 = ORIENTED_EDGE ( 'NONE', *, *, #217, .T. ) ;
#123 = ORIENTED_EDGE ( 'NONE', *, *, #233, .T. ) ;
#124 = ORIENTED_EDGE ( 'NONE', *, *, #28, .F. ) ;
#125 = COORDINATED_UNIVERSAL_TIME_OFFSET ( 5, 0, .BEHIND. ) ;
#126 = EDGE_CURVE ( 'NONE', #11, #222, #25, .T. ) ;
#127 = PERSON_AND_ORGANIZATION ( #105, #59 ) ;
#128 = VERTEX_POINT ( 'NONE', #231 ) ;
#129 = CARTESIAN_POINT ( 'NONE',  ( -3.000000000000000000, -6.349999999999997900, 6.350000000000000500 ) ) ;
#130 = CC_DESIGN_PERSON_AND_ORGANIZATION_ASSIGNMENT ( #17, #139, ( #108 ) ) ;
#131 = ORIENTED_EDGE ( 'NONE', *, *, #19, .F. ) ;
#132 = DIRECTION ( 'NONE',  ( 0.0000000000000000000, 0.0000000000000000000, -1.000000000000000000 ) ) ;
#133 = EDGE_LOOP ( 'NONE', ( #170, #134, #151, #91 ) ) ;
#134 = ORIENTED_EDGE ( 'NONE', *, *, #179, .F. ) ;
#135 = CARTESIAN_POINT ( 'NONE',  ( 3.000000000000000000, -6.349999999999997900, 6.350000000000000500 ) ) ;
#136 = CARTESIAN_POINT ( 'NONE',  ( -3.000000000000000000, 6.350000000000000500, 6.349999999999997900 ) ) ;
#137 = DIRECTION ( 'NONE',  ( 1.000000000000000000, 0.0000000000000000000, 0.0000000000000000000 ) ) ;
#138 = APPROVAL_STATUS ( 'not_yet_approved' ) ;
#139 = PERSON_AND_ORGANIZATION_ROLE ( 'creator' ) ;
#140 = ORIENTED_EDGE ( 'NONE', *, *, #179, .T. ) ;
#141 = ORIENTED_EDGE ( 'NONE', *, *, #54, .F. ) ;
#142 = CC_DESIGN_SECURITY_CLASSIFICATION ( #96, ( #147 ) ) ;
#143 = LOCAL_TIME ( 15, 20, 37.00000000000000000, #125 ) ;
#144 = COORDINATED_UNIVERSAL_TIME_OFFSET ( 5, 0, .BEHIND. ) ;
#145 = CC_DESIGN_DATE_AND_TIME_ASSIGNMENT ( #178, #209, ( #96 ) ) ;
#146 = CARTESIAN_POINT ( 'NONE',  ( 3.000000000000000000, 6.350000000000000500, 6.349999999999997900 ) ) ;
#147 = PRODUCT_DEFINITION_FORMATION_WITH_SPECIFIED_SOURCE ( 'ANY', '', #115, .NOT_KNOWN. ) ;
#148 = LINE ( 'NONE', #206, #53 ) ;
#149 = DIRECTION ( 'NONE',  ( 0.0000000000000000000, -2.048885995248197400E-016, -1.000000000000000000 ) ) ;
#150 = DIRECTION ( 'NONE',  ( -0.0000000000000000000, -0.0000000000000000000, 1.000000000000000000 ) ) ;
#151 = ORIENTED_EDGE ( 'NONE', *, *, #39, .F. ) ;
#152 = CARTESIAN_POINT ( 'NONE',  ( 3.000000000000000000, -6.349999999999997900, 6.350000000000000500 ) ) ;
#153 = APPROVAL_PERSON_ORGANIZATION ( #200, #60, #101 ) ;
#154 = AXIS2_PLACEMENT_3D ( 'NONE', #22, #186, #80 ) ;
#155 = APPLICATION_PROTOCOL_DEFINITION ( 'international standard', 'config_control_design', 1994, #212 ) ;
#156 = ADVANCED_FACE ( 'NONE', ( #112 ), #163, .F. ) ;
#157 = LINE ( 'NONE', #152, #160 ) ;
#158 = ORIENTED_EDGE ( 'NONE', *, *, #233, .F. ) ;
#159 = APPROVAL ( #84, 'UNSPECIFIED' ) ;
#160 = VECTOR ( 'NONE', #167, 1000.000000000000000 ) ;
#161 = VECTOR ( 'NONE', #183, 1000.000000000000000 ) ;
#162 = CARTESIAN_POINT ( 'NONE',  ( -3.000000000000000000, -6.349999999999997900, 6.350000000000000500 ) ) ;
#163 = PLANE ( 'NONE',  #214 ) ;
#164 = FACE_OUTER_BOUND ( 'NONE', #177, .T. ) ;
#165 = CARTESIAN_POINT ( 'NONE',  ( -3.000000000000000000, 6.350000000000000500, -6.349999999999999600 ) ) ;
#166 = EDGE_CURVE ( 'NONE', #31, #11, #227, .T. ) ;
#167 = DIRECTION ( 'NONE',  ( 0.0000000000000000000, 0.0000000000000000000, -1.000000000000000000 ) ) ;
#168 = PERSON_AND_ORGANIZATION_ROLE ( 'creator' ) ;
#169 = APPROVAL_ROLE ( '' ) ;
#170 = ORIENTED_EDGE ( 'NONE', *, *, #207, .T. ) ;
#171 = ADVANCED_BREP_SHAPE_REPRESENTATION ( 'Web Model 43772_43777', ( #224, #15 ), #71 ) ;
#172 =( NAMED_UNIT ( * ) SI_UNIT ( $, .STERADIAN. ) SOLID_ANGLE_UNIT ( ) );
#173 = VERTEX_POINT ( 'NONE', #135 ) ;
#174 = CC_DESIGN_PERSON_AND_ORGANIZATION_ASSIGNMENT ( #94, #168, ( #147 ) ) ;
#175 = DESIGN_CONTEXT ( 'detailed design', #49, 'design' ) ;
#176 = ORIENTED_EDGE ( 'NONE', *, *, #28, .T. ) ;
#177 = EDGE_LOOP ( 'NONE', ( #202, #114, #205, #123 ) ) ;
#178 = DATE_AND_TIME ( #67, #79 ) ;
#179 = EDGE_CURVE ( 'NONE', #173, #24, #148, .T. ) ;
#180 = PLANE ( 'NONE',  #219 ) ;
#181 = CC_DESIGN_PERSON_AND_ORGANIZATION_ASSIGNMENT ( #102, #45, ( #115 ) ) ;
#182 = CARTESIAN_POINT ( 'NONE',  ( 3.000000000000000000, 6.350000000000000500, -6.349999999999999600 ) ) ;
#183 = DIRECTION ( 'NONE',  ( -0.0000000000000000000, -0.0000000000000000000, 1.000000000000000000 ) ) ;
#184 = PERSON_AND_ORGANIZATION ( #105, #59 ) ;
#185 = DIRECTION ( 'NONE',  ( 0.0000000000000000000, -1.000000000000000000, 0.0000000000000000000 ) ) ;
#186 = DIRECTION ( 'NONE',  ( -0.0000000000000000000, 1.000000000000000000, 0.0000000000000000000 ) ) ;
#187 = VECTOR ( 'NONE', #99, 1000.000000000000000 ) ;
#188 = EDGE_LOOP ( 'NONE', ( #88, #78, #8, #64 ) ) ;
#189 = LOCAL_TIME ( 15, 20, 37.00000000000000000, #5 ) ;
#190 = ADVANCED_FACE ( 'NONE', ( #218 ), #82, .F. ) ;
#191 = APPROVAL_ROLE ( '' ) ;
#192 = LINE ( 'NONE', #9, #47 ) ;
#193 = LINE ( 'NONE', #3, #72 ) ;
#194 = EDGE_LOOP ( 'NONE', ( #176, #158, #118, #140 ) ) ;
#195 = DIRECTION ( 'NONE',  ( 1.000000000000000000, 0.0000000000000000000, 0.0000000000000000000 ) ) ;
#196 = ADVANCED_FACE ( 'NONE', ( #164 ), #98, .F. ) ;
#197 = EDGE_CURVE ( 'NONE', #85, #128, #192, .T. ) ;
#198 = FACE_OUTER_BOUND ( 'NONE', #188, .T. ) ;
#199 = CARTESIAN_POINT ( 'NONE',  ( 3.000000000000000000, -6.349999999999997900, -6.350000000000002300 ) ) ;
#200 = PERSON_AND_ORGANIZATION ( #105, #59 ) ;
#201 = FACE_OUTER_BOUND ( 'NONE', #234, .T. ) ;
#202 = ORIENTED_EDGE ( 'NONE', *, *, #54, .T. ) ;
#203 = CARTESIAN_POINT ( 'NONE',  ( 3.000000000000000000, 0.0000000000000000000, 0.0000000000000000000 ) ) ;
#204 = CARTESIAN_POINT ( 'NONE',  ( 3.000000000000000000, 6.350000000000000500, -6.349999999999999600 ) ) ;
#205 = ORIENTED_EDGE ( 'NONE', *, *, #166, .F. ) ;
#206 = CARTESIAN_POINT ( 'NONE',  ( 3.000000000000000000, -6.349999999999997900, 6.350000000000000500 ) ) ;
#207 = EDGE_CURVE ( 'NONE', #128, #24, #4, .T. ) ;
#208 = CARTESIAN_POINT ( 'NONE',  ( 3.000000000000000000, 6.350000000000000500, 6.349999999999997900 ) ) ;
#209 = DATE_TIME_ROLE ( 'classification_date' ) ;
#210 = ADVANCED_FACE ( 'NONE', ( #198 ), #43, .T. ) ;
#211 = CC_DESIGN_APPROVAL ( #86, ( #108 ) ) ;
#212 = APPLICATION_CONTEXT ( 'configuration controlled 3d designs of mechanical parts and assemblies' ) ;
#213 = DATE_AND_TIME ( #35, #89 ) ;
#214 = AXIS2_PLACEMENT_3D ( 'NONE', #7, #185, #61 ) ;
#215 = VECTOR ( 'NONE', #225, 1000.000000000000000 ) ;
#216 = LINE ( 'NONE', #58, #70 ) ;
#217 = EDGE_CURVE ( 'NONE', #11, #85, #1, .T. ) ;
#218 = FACE_OUTER_BOUND ( 'NONE', #194, .T. ) ;
#219 = AXIS2_PLACEMENT_3D ( 'NONE', #93, #220, #109 ) ;
#220 = DIRECTION ( 'NONE',  ( 1.000000000000000000, 0.0000000000000000000, 0.0000000000000000000 ) ) ;
#221 = EDGE_CURVE ( 'NONE', #173, #31, #157, .T. ) ;
#222 = VERTEX_POINT ( 'NONE', #208 ) ;
#223 = DIRECTION ( 'NONE',  ( -0.0000000000000000000, 1.000000000000000000, 2.048885995248197400E-016 ) ) ;
#224 = MANIFOLD_SOLID_BREP ( 'Boss-Extrude1', #37 ) ;
#225 = DIRECTION ( 'NONE',  ( 0.0000000000000000000, -1.000000000000000000, 2.048885995248197400E-016 ) ) ;
#226 = SHAPE_DEFINITION_REPRESENTATION ( #228, #171 ) ;
#227 = LINE ( 'NONE', #204, #81 ) ;
#228 = PRODUCT_DEFINITION_SHAPE ( 'NONE', 'NONE',  #108 ) ;
#229 = APPROVAL_DATE_TIME ( #213, #60 ) ;
#230 = DIRECTION ( 'NONE',  ( 0.0000000000000000000, 1.000000000000000000, -2.048885995248197400E-016 ) ) ;
#231 = CARTESIAN_POINT ( 'NONE',  ( -3.000000000000000000, 6.350000000000000500, 6.349999999999997900 ) ) ;
#232 =( NAMED_UNIT ( * ) PLANE_ANGLE_UNIT ( ) SI_UNIT ( $, .RADIAN. ) );
#233 = EDGE_CURVE ( 'NONE', #31, #51, #77, .T. ) ;
#234 = EDGE_LOOP ( 'NONE', ( #65, #32, #141, #124 ) ) ;
#235 = PERSON_AND_ORGANIZATION_ROLE ( 'classification_officer' ) ;
#236 = COORDINATED_UNIVERSAL_TIME_OFFSET ( 5, 0, .BEHIND. ) ;
#237 = AXIS2_PLACEMENT_3D ( 'NONE', #41, #149, #230 ) ;
ENDSEC;
END-ISO-10303-21;
