ISO-10303-21;
HEADER;
FILE_DESCRIPTION (( 'STEP AP203' ),
    '1' );
FILE_NAME ('24995-E0W.STEP',
    '2015-04-28T20:38:14',
    ( 'Admin' ),
    ( '' ),
    'SwSTEP 2.0',
    'SolidWorks 2014',
    '' );
FILE_SCHEMA (( 'CONFIG_CONTROL_DESIGN' ));
ENDSEC;

DATA;
#1 = CALENDAR_DATE ( 2015, 28, 4 ) ;
#2 = CYLINDRICAL_SURFACE ( 'NONE', #103, 12.69999999999999900 ) ;
#3 = CONICAL_SURFACE ( 'NONE', #274, 12.55857864376269000, 0.7853981633974482800 ) ;
#4 = DATE_AND_TIME ( #1, #47 ) ;
#5 = CC_DESIGN_PERSON_AND_ORGANIZATION_ASSIGNMENT ( #112, #185, ( #159 ) ) ;
#6 = LOCAL_TIME ( 16, 38, 14.00000000000000000, #55 ) ;
#7 = DIRECTION ( 'NONE',  ( 1.000000000000000000, 0.0000000000000000000, 0.0000000000000000000 ) ) ;
#8 = EDGE_LOOP ( 'NONE', ( #256, #63, #85 ) ) ;
#9 = ORIENTED_EDGE ( 'NONE', *, *, #100, .T. ) ;
#10 = VERTEX_POINT ( 'NONE', #262 ) ;
#11 = SECURITY_CLASSIFICATION_LEVEL ( 'unclassified' ) ;
#12 = LINE ( 'NONE', #217, #293 ) ;
#13 = CARTESIAN_POINT ( 'NONE',  ( 0.0000000000000000000, 0.0000000000000000000, -1.295000000000001000 ) ) ;
#14 = EDGE_CURVE ( 'NONE', #94, #68, #80, .T. ) ;
#15 = APPROVAL_DATE_TIME ( #72, #89 ) ;
#16 = ADVANCED_FACE ( 'NONE', ( #254 ), #230, .F. ) ;
#17 = ADVANCED_FACE ( 'NONE', ( #50 ), #301, .T. ) ;
#18 = DIRECTION ( 'NONE',  ( 0.7071067811865474600, 8.659560562354931600E-017, -0.7071067811865475700 ) ) ;
#19 = AXIS2_PLACEMENT_3D ( 'NONE', #105, #58, #42 ) ;
#20 = PRODUCT ( '24995-E0W', '24995-E0W', '', ( #132 ) ) ;
#21 = CARTESIAN_POINT ( 'NONE',  ( 0.0000000000000000000, 0.0000000000000000000, 0.7180451101900520200 ) ) ;
#22 = APPROVAL_ROLE ( '' ) ;
#23 = AXIS2_PLACEMENT_3D ( 'NONE', #108, #284, #286 ) ;
#24 = CARTESIAN_POINT ( 'NONE',  ( -0.04824763972853963300, 0.0000000000000000000, -136.7249915670380700 ) ) ;
#25 = CC_DESIGN_PERSON_AND_ORGANIZATION_ASSIGNMENT ( #129, #40, ( #213 ) ) ;
#26 = AXIS2_PLACEMENT_3D ( 'NONE', #90, #237, #107 ) ;
#27 = ORIENTED_EDGE ( 'NONE', *, *, #265, .T. ) ;
#28 = CARTESIAN_POINT ( 'NONE',  ( 12.55857864376269000, 0.0000000000000000000, -1.295000000000001000 ) ) ;
#29 = TOROIDAL_SURFACE ( 'NONE', #131, -0.04824763972853963300, 138.0200000000000100 ) ;
#30 = CIRCLE ( 'NONE', #176, 12.55857864376269000 ) ;
#31 = LINE ( 'NONE', #109, #233 ) ;
#32 = DIRECTION ( 'NONE',  ( 1.000000000000000000, 0.0000000000000000000, 0.0000000000000000000 ) ) ;
#33 = CALENDAR_DATE ( 2015, 28, 4 ) ;
#34 = AXIS2_PLACEMENT_3D ( 'NONE', #21, #82, #7 ) ;
#35 = CARTESIAN_POINT ( 'NONE',  ( 0.0000000000000000000, 0.0000000000000000000, 0.7180451101900520200 ) ) ;
#36 = FACE_OUTER_BOUND ( 'NONE', #8, .T. ) ;
#37 = EDGE_CURVE ( 'NONE', #140, #94, #12, .T. ) ;
#38 = EDGE_CURVE ( 'NONE', #178, #184, #150, .T. ) ;
#39 = CARTESIAN_POINT ( 'NONE',  ( -12.70000000000000100, 0.0000000000000000000, 0.5766237539527423500 ) ) ;
#40 = PERSON_AND_ORGANIZATION_ROLE ( 'classification_officer' ) ;
#41 = FACE_OUTER_BOUND ( 'NONE', #200, .T. ) ;
#42 = DIRECTION ( 'NONE',  ( 1.000000000000000000, 0.0000000000000000000, 0.0000000000000000000 ) ) ;
#43 =( NAMED_UNIT ( * ) PLANE_ANGLE_UNIT ( ) SI_UNIT ( $, .RADIAN. ) );
#44 = FACE_OUTER_BOUND ( 'NONE', #294, .T. ) ;
#45 = CARTESIAN_POINT ( 'NONE',  ( -12.55857864376269000, 1.546641874354783400E-015, -1.295000000000001000 ) ) ;
#46 = CIRCLE ( 'NONE', #297, 12.69999999999999900 ) ;
#47 = LOCAL_TIME ( 16, 38, 14.00000000000000000, #258 ) ;
#48 = CC_DESIGN_DATE_AND_TIME_ASSIGNMENT ( #93, #157, ( #213 ) ) ;
#49 = PERSON_AND_ORGANIZATION ( #245, #257 ) ;
#50 = FACE_OUTER_BOUND ( 'NONE', #177, .T. ) ;
#51 = DESIGN_CONTEXT ( 'detailed design', #162, 'design' ) ;
#52 = CARTESIAN_POINT ( 'NONE',  ( -12.70000000000000300, 1.555301434917138800E-015, 0.5766237539527423500 ) ) ;
#53 = DIRECTION ( 'NONE',  ( -0.0000000000000000000, -0.0000000000000000000, 1.000000000000000000 ) ) ;
#54 = DIRECTION ( 'NONE',  ( -0.0000000000000000000, -0.0000000000000000000, 1.000000000000000000 ) ) ;
#55 = COORDINATED_UNIVERSAL_TIME_OFFSET ( 5, 0, .BEHIND. ) ;
#56 = ORIENTED_EDGE ( 'NONE', *, *, #14, .F. ) ;
#57 = ADVANCED_FACE ( 'NONE', ( #36 ), #228, .T. ) ;
#58 = DIRECTION ( 'NONE',  ( -0.0000000000000000000, -0.0000000000000000000, 1.000000000000000000 ) ) ;
#59 = EDGE_LOOP ( 'NONE', ( #175, #9, #91 ) ) ;
#60 = ORIENTED_EDGE ( 'NONE', *, *, #99, .T. ) ;
#61 = FACE_OUTER_BOUND ( 'NONE', #59, .T. ) ;
#62 = EDGE_CURVE ( 'NONE', #195, #68, #280, .T. ) ;
#63 = ORIENTED_EDGE ( 'NONE', *, *, #171, .T. ) ;
#64 = AXIS2_PLACEMENT_3D ( 'NONE', #153, #123, #285 ) ;
#65 = DATE_AND_TIME ( #290, #186 ) ;
#66 = SHAPE_DEFINITION_REPRESENTATION ( #239, #272 ) ;
#67 = CIRCLE ( 'NONE', #98, 12.69999999999999900 ) ;
#68 = VERTEX_POINT ( 'NONE', #52 ) ;
#69 = DIRECTION ( 'NONE',  ( -0.0000000000000000000, -0.0000000000000000000, 1.000000000000000000 ) ) ;
#70 = APPROVAL_ROLE ( '' ) ;
#71 = AXIS2_PLACEMENT_3D ( 'NONE', #199, #216, #211 ) ;
#72 = DATE_AND_TIME ( #260, #138 ) ;
#73 = DIRECTION ( 'NONE',  ( 1.000000000000000000, 0.0000000000000000000, 0.0000000000000000000 ) ) ;
#74 = ADVANCED_FACE ( 'NONE', ( #61 ), #29, .T. ) ;
#75 = ADVANCED_FACE ( 'NONE', ( #236 ), #96, .T. ) ;
#76 = DIRECTION ( 'NONE',  ( -1.000000000000000000, 1.224646799147353200E-016, 0.0000000000000000000 ) ) ;
#77 = DIRECTION ( 'NONE',  ( -0.0000000000000000000, -0.0000000000000000000, 1.000000000000000000 ) ) ;
#78 = CC_DESIGN_APPROVAL ( #137, ( #244 ) ) ;
#79 = PERSON_AND_ORGANIZATION ( #245, #257 ) ;
#80 = LINE ( 'NONE', #194, #165 ) ;
#81 = AXIS2_PLACEMENT_3D ( 'NONE', #214, #201, #203 ) ;
#82 = DIRECTION ( 'NONE',  ( -0.0000000000000000000, -0.0000000000000000000, 1.000000000000000000 ) ) ;
#83 = APPLICATION_PROTOCOL_DEFINITION ( 'international standard', 'config_control_design', 1994, #162 ) ;
#84 = PERSON_AND_ORGANIZATION_ROLE ( 'design_owner' ) ;
#85 = ORIENTED_EDGE ( 'NONE', *, *, #124, .F. ) ;
#86 = CIRCLE ( 'NONE', #26, 12.70000000000000100 ) ;
#87 = APPROVAL_PERSON_ORGANIZATION ( #106, #210, #70 ) ;
#88 = CC_DESIGN_DATE_AND_TIME_ASSIGNMENT ( #4, #95, ( #159 ) ) ;
#89 = APPROVAL ( #224, 'UNSPECIFIED' ) ;
#90 = CARTESIAN_POINT ( 'NONE',  ( 0.0000000000000000000, 0.0000000000000000000, 0.5766237539527423500 ) ) ;
#91 = ORIENTED_EDGE ( 'NONE', *, *, #124, .T. ) ;
#92 = DIRECTION ( 'NONE',  ( 0.0000000000000000000, 0.0000000000000000000, -1.000000000000000000 ) ) ;
#93 = DATE_AND_TIME ( #270, #6 ) ;
#94 = VERTEX_POINT ( 'NONE', #226 ) ;
#95 = DATE_TIME_ROLE ( 'creation_date' ) ;
#96 = CONICAL_SURFACE ( 'NONE', #64, 12.70000000000000100, 0.7853981633974482800 ) ;
#97 = LINE ( 'NONE', #240, #298 ) ;
#98 = AXIS2_PLACEMENT_3D ( 'NONE', #130, #225, #173 ) ;
#99 = EDGE_CURVE ( 'NONE', #184, #94, #67, .T. ) ;
#100 = EDGE_CURVE ( 'NONE', #195, #10, #279, .T. ) ;
#101 = CARTESIAN_POINT ( 'NONE',  ( 0.0000000000000000000, 0.0000000000000000000, -136.7249915670380700 ) ) ;
#102 = CARTESIAN_POINT ( 'NONE',  ( -12.55857864376272000, 1.537982313792432600E-015, 0.7180451101900520200 ) ) ;
#103 = AXIS2_PLACEMENT_3D ( 'NONE', #278, #69, #126 ) ;
#104 = APPROVAL_DATE_TIME ( #209, #210 ) ;
#105 = CARTESIAN_POINT ( 'NONE',  ( 0.0000000000000000000, 0.0000000000000000000, 0.5766237539527423500 ) ) ;
#106 = PERSON_AND_ORGANIZATION ( #245, #257 ) ;
#107 = DIRECTION ( 'NONE',  ( 1.000000000000000000, 0.0000000000000000000, 0.0000000000000000000 ) ) ;
#108 = CARTESIAN_POINT ( 'NONE',  ( 0.0000000000000000000, 0.0000000000000000000, 0.5766237539527423500 ) ) ;
#109 = CARTESIAN_POINT ( 'NONE',  ( 12.70000000000000100, 1.555301434917138600E-015, 0.5766237539527423500 ) ) ;
#110 = DIRECTION ( 'NONE',  ( -0.0000000000000000000, -0.0000000000000000000, 1.000000000000000000 ) ) ;
#111 = DIRECTION ( 'NONE',  ( -0.0000000000000000000, -0.0000000000000000000, 1.000000000000000000 ) ) ;
#112 = PERSON_AND_ORGANIZATION ( #245, #257 ) ;
#113 = CARTESIAN_POINT ( 'NONE',  ( 0.0000000000000000000, 0.0000000000000000000, -1.153578643762691400 ) ) ;
#114 = CIRCLE ( 'NONE', #136, 138.0200000000000100 ) ;
#115 =( GEOMETRIC_REPRESENTATION_CONTEXT ( 3 ) GLOBAL_UNCERTAINTY_ASSIGNED_CONTEXT ( ( #207 ) ) GLOBAL_UNIT_ASSIGNED_CONTEXT ( ( #300, #43, #289 ) ) REPRESENTATION_CONTEXT ( 'NONE', 'WORKASPACE' ) );
#116 = CC_DESIGN_PERSON_AND_ORGANIZATION_ASSIGNMENT ( #79, #84, ( #20 ) ) ;
#117 = DIRECTION ( 'NONE',  ( 0.0000000000000000000, 0.0000000000000000000, 1.000000000000000000 ) ) ;
#118 = APPROVAL_STATUS ( 'not_yet_approved' ) ;
#119 = CARTESIAN_POINT ( 'NONE',  ( 12.70000000000000100, 0.0000000000000000000, 0.5766237539527423500 ) ) ;
#120 = DIRECTION ( 'NONE',  ( 1.000000000000000000, 0.0000000000000000000, 0.0000000000000000000 ) ) ;
#121 = DIRECTION ( 'NONE',  ( 1.000000000000000000, 0.0000000000000000000, 0.0000000000000000000 ) ) ;
#122 = COORDINATED_UNIVERSAL_TIME_OFFSET ( 5, 0, .BEHIND. ) ;
#123 = DIRECTION ( 'NONE',  ( 0.0000000000000000000, 0.0000000000000000000, -1.000000000000000000 ) ) ;
#124 = EDGE_CURVE ( 'NONE', #10, #192, #114, .T. ) ;
#125 = EDGE_CURVE ( 'NONE', #184, #144, #97, .T. ) ;
#126 = DIRECTION ( 'NONE',  ( 1.000000000000000000, 0.0000000000000000000, 0.0000000000000000000 ) ) ;
#127 = DIRECTION ( 'NONE',  ( 0.0000000000000000000, -1.000000000000000000, 0.0000000000000000000 ) ) ;
#128 = CARTESIAN_POINT ( 'NONE',  ( 0.0000000000000000000, 0.0000000000000000000, -136.7249915670380700 ) ) ;
#129 = PERSON_AND_ORGANIZATION ( #245, #257 ) ;
#130 = CARTESIAN_POINT ( 'NONE',  ( 0.0000000000000000000, 0.0000000000000000000, -1.153578643762691400 ) ) ;
#131 = AXIS2_PLACEMENT_3D ( 'NONE', #128, #275, #73 ) ;
#132 = MECHANICAL_CONTEXT ( 'NONE', #164, 'mechanical' ) ;
#133 = MANIFOLD_SOLID_BREP ( '24995-001-1-solid1', #148 ) ;
#134 = DIRECTION ( 'NONE',  ( -0.0000000000000000000, -0.0000000000000000000, 1.000000000000000000 ) ) ;
#135 = CONICAL_SURFACE ( 'NONE', #23, 12.70000000000000100, 0.7853981633974482800 ) ;
#136 = AXIS2_PLACEMENT_3D ( 'NONE', #24, #127, #92 ) ;
#137 = APPROVAL ( #263, 'UNSPECIFIED' ) ;
#138 = LOCAL_TIME ( 16, 38, 14.00000000000000000, #259 ) ;
#139 = FACE_OUTER_BOUND ( 'NONE', #241, .T. ) ;
#140 = VERTEX_POINT ( 'NONE', #45 ) ;
#141 = ORIENTED_EDGE ( 'NONE', *, *, #198, .F. ) ;
#142 = EDGE_CURVE ( 'NONE', #144, #68, #156, .T. ) ;
#143 = ORIENTED_EDGE ( 'NONE', *, *, #62, .F. ) ;
#144 = VERTEX_POINT ( 'NONE', #119 ) ;
#145 = ORIENTED_EDGE ( 'NONE', *, *, #295, .F. ) ;
#146 = ORIENTED_EDGE ( 'NONE', *, *, #62, .T. ) ;
#147 = DIRECTION ( 'NONE',  ( -0.7071067811865474600, 8.659560562354931600E-017, 0.7071067811865475700 ) ) ;
#148 = CLOSED_SHELL ( 'NONE', ( #196, #17, #296, #57, #74, #16, #238, #170, #75 ) ) ;
#149 = AXIS2_PLACEMENT_3D ( 'NONE', #168, #189, #76 ) ;
#150 = LINE ( 'NONE', #28, #183 ) ;
#151 = PERSON_AND_ORGANIZATION ( #245, #257 ) ;
#152 = DIRECTION ( 'NONE',  ( 1.000000000000000000, 0.0000000000000000000, 0.0000000000000000000 ) ) ;
#153 = CARTESIAN_POINT ( 'NONE',  ( 0.0000000000000000000, 0.0000000000000000000, 0.5766237539527423500 ) ) ;
#154 = DIRECTION ( 'NONE',  ( 1.000000000000000000, 0.0000000000000000000, 0.0000000000000000000 ) ) ;
#155 = ORIENTED_EDGE ( 'NONE', *, *, #38, .F. ) ;
#156 = CIRCLE ( 'NONE', #19, 12.70000000000000100 ) ;
#157 = DATE_TIME_ROLE ( 'classification_date' ) ;
#158 = DIRECTION ( 'NONE',  ( 0.7071067811865474600, 0.0000000000000000000, 0.7071067811865475700 ) ) ;
#159 = PRODUCT_DEFINITION ( 'UNKNOWN', '', #244, #51 ) ;
#160 = ORIENTED_EDGE ( 'NONE', *, *, #220, .F. ) ;
#161 = VECTOR ( 'NONE', #229, 1000.000000000000000 ) ;
#162 = APPLICATION_CONTEXT ( 'configuration controlled 3d designs of mechanical parts and assemblies' ) ;
#163 = ORIENTED_EDGE ( 'NONE', *, *, #267, .F. ) ;
#164 = APPLICATION_CONTEXT ( 'configuration controlled 3d designs of mechanical parts and assemblies' ) ;
#165 = VECTOR ( 'NONE', #54, 1000.000000000000000 ) ;
#166 = APPROVAL_DATE_TIME ( #65, #137 ) ;
#167 = ORIENTED_EDGE ( 'NONE', *, *, #142, .T. ) ;
#168 = CARTESIAN_POINT ( 'NONE',  ( 0.04824763972853963300, -5.908631755997073700E-018, -136.7249915670380700 ) ) ;
#169 = AXIS2_PLACEMENT_3D ( 'NONE', #35, #53, #121 ) ;
#170 = ADVANCED_FACE ( 'NONE', ( #271 ), #2, .T. ) ;
#171 = EDGE_CURVE ( 'NONE', #195, #192, #251, .T. ) ;
#172 = EDGE_LOOP ( 'NONE', ( #141, #182, #146, #179 ) ) ;
#173 = DIRECTION ( 'NONE',  ( 1.000000000000000000, 0.0000000000000000000, 0.0000000000000000000 ) ) ;
#174 = CARTESIAN_POINT ( 'NONE',  ( 0.0000000000000000000, 0.0000000000000000000, -1.295000000000001000 ) ) ;
#175 = ORIENTED_EDGE ( 'NONE', *, *, #171, .F. ) ;
#176 = AXIS2_PLACEMENT_3D ( 'NONE', #291, #111, #120 ) ;
#177 = EDGE_LOOP ( 'NONE', ( #60, #247, #191, #180 ) ) ;
#178 = VERTEX_POINT ( 'NONE', #246 ) ;
#179 = ORIENTED_EDGE ( 'NONE', *, *, #221, .T. ) ;
#180 = ORIENTED_EDGE ( 'NONE', *, *, #125, .F. ) ;
#181 = DIRECTION ( 'NONE',  ( 1.000000000000000000, 0.0000000000000000000, 0.0000000000000000000 ) ) ;
#182 = ORIENTED_EDGE ( 'NONE', *, *, #100, .F. ) ;
#183 = VECTOR ( 'NONE', #158, 1000.000000000000000 ) ;
#184 = VERTEX_POINT ( 'NONE', #268 ) ;
#185 = PERSON_AND_ORGANIZATION_ROLE ( 'creator' ) ;
#186 = LOCAL_TIME ( 16, 38, 14.00000000000000000, #218 ) ;
#187 = PRODUCT_RELATED_PRODUCT_CATEGORY ( 'detail', '', ( #20 ) ) ;
#188 = ORIENTED_EDGE ( 'NONE', *, *, #198, .T. ) ;
#189 = DIRECTION ( 'NONE',  ( 1.224646799147353200E-016, 1.000000000000000000, 0.0000000000000000000 ) ) ;
#190 = ORIENTED_EDGE ( 'NONE', *, *, #99, .F. ) ;
#191 = ORIENTED_EDGE ( 'NONE', *, *, #142, .F. ) ;
#192 = VERTEX_POINT ( 'NONE', #273 ) ;
#193 = PERSON_AND_ORGANIZATION ( #245, #257 ) ;
#194 = CARTESIAN_POINT ( 'NONE',  ( -12.69999999999999900, 1.555301434917138400E-015, 16.01355499976209300 ) ) ;
#195 = VERTEX_POINT ( 'NONE', #102 ) ;
#196 = ADVANCED_FACE ( 'NONE', ( #41 ), #135, .T. ) ;
#197 = AXIS2_PLACEMENT_3D ( 'NONE', #174, #77, #32 ) ;
#198 = EDGE_CURVE ( 'NONE', #10, #144, #31, .T. ) ;
#199 = CARTESIAN_POINT ( 'NONE',  ( 0.0000000000000000000, 0.0000000000000000000, 16.01355499976209300 ) ) ;
#200 = EDGE_LOOP ( 'NONE', ( #160, #188, #167, #143 ) ) ;
#201 = DIRECTION ( 'NONE',  ( 0.0000000000000000000, -0.0000000000000000000, 1.000000000000000000 ) ) ;
#202 = ORIENTED_EDGE ( 'NONE', *, *, #38, .T. ) ;
#203 = DIRECTION ( 'NONE',  ( 1.000000000000000000, 0.0000000000000000000, 0.0000000000000000000 ) ) ;
#204 = EDGE_LOOP ( 'NONE', ( #163, #145 ) ) ;
#205 = CC_DESIGN_SECURITY_CLASSIFICATION ( #213, ( #244 ) ) ;
#206 = CARTESIAN_POINT ( 'NONE',  ( 0.0000000000000000000, 0.0000000000000000000, -1.295000000000001000 ) ) ;
#207 = UNCERTAINTY_MEASURE_WITH_UNIT (LENGTH_MEASURE( 1.000000000000000100E-005 ), #300, 'distance_accuracy_value', 'NONE');
#208 = CIRCLE ( 'NONE', #34, 12.55857864376269200 ) ;
#209 = DATE_AND_TIME ( #33, #252 ) ;
#210 = APPROVAL ( #118, 'UNSPECIFIED' ) ;
#211 = DIRECTION ( 'NONE',  ( 1.000000000000000000, 0.0000000000000000000, 0.0000000000000000000 ) ) ;
#212 = PERSON_AND_ORGANIZATION_ROLE ( 'design_supplier' ) ;
#213 = SECURITY_CLASSIFICATION ( '', '', #11 ) ;
#214 = CARTESIAN_POINT ( 'NONE',  ( 0.0000000000000000000, 0.0000000000000000000, -1.294999999999999900 ) ) ;
#215 = AXIS2_PLACEMENT_3D ( 'NONE', #222, #117, #181 ) ;
#216 = DIRECTION ( 'NONE',  ( -0.0000000000000000000, -0.0000000000000000000, 1.000000000000000000 ) ) ;
#217 = CARTESIAN_POINT ( 'NONE',  ( -12.55857864376269000, 1.537982313792428700E-015, -1.295000000000001000 ) ) ;
#218 = COORDINATED_UNIVERSAL_TIME_OFFSET ( 5, 0, .BEHIND. ) ;
#219 = DIRECTION ( 'NONE',  ( -0.0000000000000000000, -0.0000000000000000000, 1.000000000000000000 ) ) ;
#220 = EDGE_CURVE ( 'NONE', #10, #195, #208, .T. ) ;
#221 = EDGE_CURVE ( 'NONE', #68, #144, #86, .T. ) ;
#222 = CARTESIAN_POINT ( 'NONE',  ( 0.0000000000000000000, 0.0000000000000000000, 0.0000000000000000000 ) ) ;
#223 = APPLICATION_PROTOCOL_DEFINITION ( 'international standard', 'config_control_design', 1994, #164 ) ;
#224 = APPROVAL_STATUS ( 'not_yet_approved' ) ;
#225 = DIRECTION ( 'NONE',  ( -0.0000000000000000000, -0.0000000000000000000, 1.000000000000000000 ) ) ;
#226 = CARTESIAN_POINT ( 'NONE',  ( -12.69999999999999900, 1.555301434917138400E-015, -1.153578643762691400 ) ) ;
#227 = AXIS2_PLACEMENT_3D ( 'NONE', #13, #110, #154 ) ;
#228 = TOROIDAL_SURFACE ( 'NONE', #243, -0.04824763972853963300, 138.0200000000000100 ) ;
#229 = DIRECTION ( 'NONE',  ( -0.7071067811865474600, 0.0000000000000000000, -0.7071067811865475700 ) ) ;
#230 = PLANE ( 'NONE',  #81 ) ;
#231 = CONICAL_SURFACE ( 'NONE', #197, 12.55857864376269000, 0.7853981633974482800 ) ;
#232 = CC_DESIGN_PERSON_AND_ORGANIZATION_ASSIGNMENT ( #151, #292, ( #244 ) ) ;
#233 = VECTOR ( 'NONE', #18, 1000.000000000000000 ) ;
#234 = APPROVAL_PERSON_ORGANIZATION ( #49, #137, #22 ) ;
#235 = CC_DESIGN_APPROVAL ( #210, ( #159 ) ) ;
#236 = FACE_OUTER_BOUND ( 'NONE', #172, .T. ) ;
#237 = DIRECTION ( 'NONE',  ( -0.0000000000000000000, -0.0000000000000000000, 1.000000000000000000 ) ) ;
#238 = ADVANCED_FACE ( 'NONE', ( #44 ), #3, .T. ) ;
#239 = PRODUCT_DEFINITION_SHAPE ( 'NONE', 'NONE',  #159 ) ;
#240 = CARTESIAN_POINT ( 'NONE',  ( 12.69999999999999900, 0.0000000000000000000, 16.01355499976209300 ) ) ;
#241 = EDGE_LOOP ( 'NONE', ( #255, #248, #190, #155 ) ) ;
#242 = EDGE_LOOP ( 'NONE', ( #56, #27, #253, #299 ) ) ;
#243 = AXIS2_PLACEMENT_3D ( 'NONE', #101, #277, #152 ) ;
#244 = PRODUCT_DEFINITION_FORMATION_WITH_SPECIFIED_SOURCE ( 'ANY', '', #20, .NOT_KNOWN. ) ;
#245 = PERSON ( 'UNSPECIFIED', 'UNSPECIFIED', 'UNSPECIFIED', ('UNSPECIFIED'), ('UNSPECIFIED'), ('UNSPECIFIED') ) ;
#246 = CARTESIAN_POINT ( 'NONE',  ( 12.55857864376269000, 0.0000000000000000000, -1.295000000000001000 ) ) ;
#247 = ORIENTED_EDGE ( 'NONE', *, *, #14, .T. ) ;
#248 = ORIENTED_EDGE ( 'NONE', *, *, #37, .T. ) ;
#249 = APPROVAL_ROLE ( '' ) ;
#250 = APPROVAL_PERSON_ORGANIZATION ( #193, #89, #249 ) ;
#251 = CIRCLE ( 'NONE', #149, 138.0200000000000100 ) ;
#252 = LOCAL_TIME ( 16, 38, 14.00000000000000000, #122 ) ;
#253 = ORIENTED_EDGE ( 'NONE', *, *, #125, .T. ) ;
#254 = FACE_OUTER_BOUND ( 'NONE', #204, .T. ) ;
#255 = ORIENTED_EDGE ( 'NONE', *, *, #267, .T. ) ;
#256 = ORIENTED_EDGE ( 'NONE', *, *, #220, .T. ) ;
#257 = ORGANIZATION ( 'UNSPECIFIED', 'UNSPECIFIED', '' ) ;
#258 = COORDINATED_UNIVERSAL_TIME_OFFSET ( 5, 0, .BEHIND. ) ;
#259 = COORDINATED_UNIVERSAL_TIME_OFFSET ( 5, 0, .BEHIND. ) ;
#260 = CALENDAR_DATE ( 2015, 28, 4 ) ;
#261 = ORIENTED_EDGE ( 'NONE', *, *, #37, .F. ) ;
#262 = CARTESIAN_POINT ( 'NONE',  ( 12.55857864376272000, 0.0000000000000000000, 0.7180451101900520200 ) ) ;
#263 = APPROVAL_STATUS ( 'not_yet_approved' ) ;
#264 = PERSON_AND_ORGANIZATION ( #245, #257 ) ;
#265 = EDGE_CURVE ( 'NONE', #94, #184, #46, .T. ) ;
#266 = ORIENTED_EDGE ( 'NONE', *, *, #265, .F. ) ;
#267 = EDGE_CURVE ( 'NONE', #178, #140, #30, .T. ) ;
#268 = CARTESIAN_POINT ( 'NONE',  ( 12.69999999999999900, 0.0000000000000000000, -1.153578643762691400 ) ) ;
#269 = ORIENTED_EDGE ( 'NONE', *, *, #295, .T. ) ;
#270 = CALENDAR_DATE ( 2015, 28, 4 ) ;
#271 = FACE_OUTER_BOUND ( 'NONE', #242, .T. ) ;
#272 = ADVANCED_BREP_SHAPE_REPRESENTATION ( '24995-E0W', ( #133, #215 ), #115 ) ;
#273 = CARTESIAN_POINT ( 'NONE',  ( 0.0000000000000000000, 0.0000000000000000000, 1.294999999999999900 ) ) ;
#274 = AXIS2_PLACEMENT_3D ( 'NONE', #206, #134, #281 ) ;
#275 = DIRECTION ( 'NONE',  ( -0.0000000000000000000, -0.0000000000000000000, 1.000000000000000000 ) ) ;
#276 = CC_DESIGN_APPROVAL ( #89, ( #213 ) ) ;
#277 = DIRECTION ( 'NONE',  ( -0.0000000000000000000, -0.0000000000000000000, 1.000000000000000000 ) ) ;
#278 = CARTESIAN_POINT ( 'NONE',  ( 0.0000000000000000000, 0.0000000000000000000, 16.01355499976209300 ) ) ;
#279 = CIRCLE ( 'NONE', #169, 12.55857864376269200 ) ;
#280 = LINE ( 'NONE', #39, #161 ) ;
#281 = DIRECTION ( 'NONE',  ( 1.000000000000000000, 0.0000000000000000000, 0.0000000000000000000 ) ) ;
#282 = CIRCLE ( 'NONE', #227, 12.55857864376269000 ) ;
#283 = CC_DESIGN_PERSON_AND_ORGANIZATION_ASSIGNMENT ( #264, #212, ( #244 ) ) ;
#284 = DIRECTION ( 'NONE',  ( 0.0000000000000000000, 0.0000000000000000000, -1.000000000000000000 ) ) ;
#285 = DIRECTION ( 'NONE',  ( -1.000000000000000000, 0.0000000000000000000, 0.0000000000000000000 ) ) ;
#286 = DIRECTION ( 'NONE',  ( -1.000000000000000000, 0.0000000000000000000, 0.0000000000000000000 ) ) ;
#287 = DIRECTION ( 'NONE',  ( -0.0000000000000000000, -0.0000000000000000000, 1.000000000000000000 ) ) ;
#288 = DIRECTION ( 'NONE',  ( 1.000000000000000000, 0.0000000000000000000, 0.0000000000000000000 ) ) ;
#289 =( NAMED_UNIT ( * ) SI_UNIT ( $, .STERADIAN. ) SOLID_ANGLE_UNIT ( ) );
#290 = CALENDAR_DATE ( 2015, 28, 4 ) ;
#291 = CARTESIAN_POINT ( 'NONE',  ( 0.0000000000000000000, 0.0000000000000000000, -1.295000000000001000 ) ) ;
#292 = PERSON_AND_ORGANIZATION_ROLE ( 'creator' ) ;
#293 = VECTOR ( 'NONE', #147, 1000.000000000000000 ) ;
#294 = EDGE_LOOP ( 'NONE', ( #261, #269, #202, #266 ) ) ;
#295 = EDGE_CURVE ( 'NONE', #140, #178, #282, .T. ) ;
#296 = ADVANCED_FACE ( 'NONE', ( #139 ), #231, .T. ) ;
#297 = AXIS2_PLACEMENT_3D ( 'NONE', #113, #287, #288 ) ;
#298 = VECTOR ( 'NONE', #219, 1000.000000000000000 ) ;
#299 = ORIENTED_EDGE ( 'NONE', *, *, #221, .F. ) ;
#300 =( LENGTH_UNIT ( ) NAMED_UNIT ( * ) SI_UNIT ( .MILLI., .METRE. ) );
#301 = CYLINDRICAL_SURFACE ( 'NONE', #71, 12.69999999999999900 ) ;
ENDSEC;
END-ISO-10303-21;
