ISO-10303-21;
HEADER;
FILE_DESCRIPTION (( 'STEP AP203' ),
    '1' );
FILE_NAME ('Web Model 49576_49576.step',
    '2019-04-23T14:08:34',
    ( '' ),
    ( '' ),
    'SwSTEP 2.0',
    'SolidWorks 2018',
    '' );
FILE_SCHEMA (( 'CONFIG_CONTROL_DESIGN' ));
ENDSEC;

DATA;
#1 = CARTESIAN_POINT ( 'NONE',  ( -6.349999999999999645, 6.349999999999999645, 3.000000000000000000 ) ) ;
#2 = CARTESIAN_POINT ( 'NONE',  ( -6.349999999999999645, -6.349999999999999645, 3.000000000000000000 ) ) ;
#3 = PLANE ( 'NONE',  #109 ) ;
#4 = VECTOR ( 'NONE', #51, 1000.000000000000000 ) ;
#5 = APPROVAL_STATUS ( 'not_yet_approved' ) ;
#6 = VERTEX_POINT ( 'NONE', #45 ) ;
#7 = CC_DESIGN_PERSON_AND_ORGANIZATION_ASSIGNMENT ( #207, #23, ( #193 ) ) ;
#8 = EDGE_LOOP ( 'NONE', ( #124, #44, #99, #46 ) ) ;
#9 = CC_DESIGN_APPROVAL ( #28, ( #79 ) ) ;
#10 = ADVANCED_FACE ( 'NONE', ( #25 ), #130, .F. ) ;
#11 = ORIENTED_EDGE ( 'NONE', *, *, #39, .T. ) ;
#12 = DATE_AND_TIME ( #29, #64 ) ;
#13 = MANIFOLD_SOLID_BREP ( 'NONE', #155 ) ;
#14 = ORIENTED_EDGE ( 'NONE', *, *, #39, .F. ) ;
#15 = LINE ( 'NONE', #102, #157 ) ;
#16 = DIRECTION ( 'NONE',  ( -1.000000000000000000, 0.0000000000000000000, 0.0000000000000000000 ) ) ;
#17 = DESIGN_CONTEXT ( 'detailed design', #165, 'design' ) ;
#18 = EDGE_LOOP ( 'NONE', ( #149, #191, #146, #176 ) ) ;
#19 = PLANE ( 'NONE',  #63 ) ;
#20 = CARTESIAN_POINT ( 'NONE',  ( 6.349999999999999645, -6.349999999999999645, 3.000000000000000000 ) ) ;
#21 = SECURITY_CLASSIFICATION ( '', '', #92 ) ;
#22 = PLANE ( 'NONE',  #137 ) ;
#23 = PERSON_AND_ORGANIZATION_ROLE ( 'creator' ) ;
#24 = CARTESIAN_POINT ( 'NONE',  ( -6.349999999999999645, -6.349999999999999645, 3.000000000000000000 ) ) ;
#25 = FACE_OUTER_BOUND ( 'NONE', #8, .T. ) ;
#26 = LINE ( 'NONE', #1, #133 ) ;
#27 = EDGE_LOOP ( 'NONE', ( #11, #90, #174, #173 ) ) ;
#28 = APPROVAL ( #34, 'UNSPECIFIED' ) ;
#29 = CALENDAR_DATE ( 2019, 23, 4 ) ;
#30 = COORDINATED_UNIVERSAL_TIME_OFFSET ( 5, 0, .BEHIND. ) ;
#31 = DIRECTION ( 'NONE',  ( 0.0000000000000000000, 1.000000000000000000, 0.0000000000000000000 ) ) ;
#32 = PLANE ( 'NONE',  #78 ) ;
#33 = CARTESIAN_POINT ( 'NONE',  ( -6.349999999999999645, -6.349999999999999645, 0.0000000000000000000 ) ) ;
#34 = APPROVAL_STATUS ( 'not_yet_approved' ) ;
#35 = CALENDAR_DATE ( 2019, 23, 4 ) ;
#36 = MECHANICAL_CONTEXT ( 'NONE', #206, 'mechanical' ) ;
#37 = CC_DESIGN_DATE_AND_TIME_ASSIGNMENT ( #171, #70, ( #21 ) ) ;
#38 = APPLICATION_PROTOCOL_DEFINITION ( 'international standard', 'config_control_design', 1994, #165 ) ;
#39 = EDGE_CURVE ( 'NONE', #139, #216, #217, .T. ) ;
#40 = ADVANCED_FACE ( 'NONE', ( #80 ), #22, .T. ) ;
#41 = PRODUCT_RELATED_PRODUCT_CATEGORY ( 'detail', '', ( #106 ) ) ;
#42 = VECTOR ( 'NONE', #177, 1000.000000000000000 ) ;
#43 = EDGE_CURVE ( 'NONE', #6, #182, #26, .T. ) ;
#44 = ORIENTED_EDGE ( 'NONE', *, *, #73, .F. ) ;
#45 = CARTESIAN_POINT ( 'NONE',  ( -6.349999999999999645, 6.349999999999999645, 3.000000000000000000 ) ) ;
#46 = ORIENTED_EDGE ( 'NONE', *, *, #43, .T. ) ;
#47 = DATE_AND_TIME ( #117, #228 ) ;
#48 = CC_DESIGN_SECURITY_CLASSIFICATION ( #21, ( #79 ) ) ;
#49 = CARTESIAN_POINT ( 'NONE',  ( 6.349999999999999645, 6.349999999999999645, 3.000000000000000000 ) ) ;
#50 = DIRECTION ( 'NONE',  ( 1.000000000000000000, 0.0000000000000000000, 0.0000000000000000000 ) ) ;
#51 = DIRECTION ( 'NONE',  ( 1.000000000000000000, 0.0000000000000000000, 0.0000000000000000000 ) ) ;
#52 = DIRECTION ( 'NONE',  ( 0.0000000000000000000, 0.0000000000000000000, 1.000000000000000000 ) ) ;
#53 = VECTOR ( 'NONE', #159, 1000.000000000000000 ) ;
#54 = EDGE_CURVE ( 'NONE', #182, #100, #154, .T. ) ;
#55 = PERSON_AND_ORGANIZATION_ROLE ( 'design_owner' ) ;
#56 = APPROVAL_ROLE ( '' ) ;
#57 = VECTOR ( 'NONE', #31, 1000.000000000000000 ) ;
#58 = CARTESIAN_POINT ( 'NONE',  ( 0.0000000000000000000, 0.0000000000000000000, 0.0000000000000000000 ) ) ;
#59 = ADVANCED_FACE ( 'NONE', ( #62 ), #19, .F. ) ;
#60 = DATE_AND_TIME ( #184, #114 ) ;
#61 = FACE_OUTER_BOUND ( 'NONE', #18, .T. ) ;
#62 = FACE_OUTER_BOUND ( 'NONE', #85, .T. ) ;
#63 = AXIS2_PLACEMENT_3D ( 'NONE', #181, #16, #52 ) ;
#64 = LOCAL_TIME ( 10, 8, 34.00000000000000000, #76 ) ;
#65 = ORIENTED_EDGE ( 'NONE', *, *, #197, .F. ) ;
#66 = DIRECTION ( 'NONE',  ( 0.0000000000000000000, 0.0000000000000000000, -1.000000000000000000 ) ) ;
#67 = PERSON_AND_ORGANIZATION ( #88, #131 ) ;
#68 = CC_DESIGN_DATE_AND_TIME_ASSIGNMENT ( #47, #167, ( #193 ) ) ;
#69 = DIRECTION ( 'NONE',  ( 0.0000000000000000000, 0.0000000000000000000, -1.000000000000000000 ) ) ;
#70 = DATE_TIME_ROLE ( 'classification_date' ) ;
#71 = DIRECTION ( 'NONE',  ( 1.000000000000000000, 0.0000000000000000000, 0.0000000000000000000 ) ) ;
#72 = DIRECTION ( 'NONE',  ( -1.000000000000000000, 0.0000000000000000000, 0.0000000000000000000 ) ) ;
#73 = EDGE_CURVE ( 'NONE', #142, #100, #145, .T. ) ;
#74 = DIRECTION ( 'NONE',  ( 1.000000000000000000, 0.0000000000000000000, 0.0000000000000000000 ) ) ;
#75 = EDGE_LOOP ( 'NONE', ( #65, #213, #231, #101 ) ) ;
#76 = COORDINATED_UNIVERSAL_TIME_OFFSET ( 5, 0, .BEHIND. ) ;
#77 = APPROVAL_DATE_TIME ( #108, #134 ) ;
#78 = AXIS2_PLACEMENT_3D ( 'NONE', #98, #69, #201 ) ;
#79 = PRODUCT_DEFINITION_FORMATION_WITH_SPECIFIED_SOURCE ( 'ANY', '', #106, .NOT_KNOWN. ) ;
#80 = FACE_OUTER_BOUND ( 'NONE', #75, .T. ) ;
#81 = COORDINATED_UNIVERSAL_TIME_OFFSET ( 5, 0, .BEHIND. ) ;
#82 = CARTESIAN_POINT ( 'NONE',  ( -6.349999999999999645, 6.349999999999999645, 3.000000000000000000 ) ) ;
#83 = DIRECTION ( 'NONE',  ( 0.0000000000000000000, 0.0000000000000000000, -1.000000000000000000 ) ) ;
#84 = FACE_OUTER_BOUND ( 'NONE', #27, .T. ) ;
#85 = EDGE_LOOP ( 'NONE', ( #226, #161, #14, #158 ) ) ;
#86 = DIRECTION ( 'NONE',  ( 0.0000000000000000000, -1.000000000000000000, 0.0000000000000000000 ) ) ;
#87 = ORIENTED_EDGE ( 'NONE', *, *, #227, .T. ) ;
#88 = PERSON ( 'UNSPECIFIED', 'UNSPECIFIED', 'UNSPECIFIED', ('UNSPECIFIED'), ('UNSPECIFIED'), ('UNSPECIFIED') ) ;
#89 = PERSON_AND_ORGANIZATION_ROLE ( 'creator' ) ;
#90 = ORIENTED_EDGE ( 'NONE', *, *, #179, .T. ) ;
#91 = PERSON_AND_ORGANIZATION_ROLE ( 'design_supplier' ) ;
#92 = SECURITY_CLASSIFICATION_LEVEL ( 'unclassified' ) ;
#93 = APPLICATION_PROTOCOL_DEFINITION ( 'international standard', 'config_control_design', 1994, #206 ) ;
#94 = LINE ( 'NONE', #144, #4 ) ;
#95 = LINE ( 'NONE', #20, #166 ) ;
#96 = AXIS2_PLACEMENT_3D ( 'NONE', #180, #103, #50 ) ;
#97 = EDGE_CURVE ( 'NONE', #100, #116, #94, .T. ) ;
#98 = CARTESIAN_POINT ( 'NONE',  ( 0.0000000000000000000, 0.0000000000000000000, 3.000000000000000000 ) ) ;
#99 = ORIENTED_EDGE ( 'NONE', *, *, #190, .F. ) ;
#100 = VERTEX_POINT ( 'NONE', #118 ) ;
#101 = ORIENTED_EDGE ( 'NONE', *, *, #227, .F. ) ;
#102 = CARTESIAN_POINT ( 'NONE',  ( -6.349999999999999645, 6.349999999999999645, 0.0000000000000000000 ) ) ;
#103 = DIRECTION ( 'NONE',  ( -0.0000000000000000000, 1.000000000000000000, 0.0000000000000000000 ) ) ;
#104 = FACE_OUTER_BOUND ( 'NONE', #175, .T. ) ;
#105 = PERSON_AND_ORGANIZATION_ROLE ( 'classification_officer' ) ;
#106 = PRODUCT ( 'Web Model 49576_49576', 'Web Model 49576_49576', '', ( #36 ) ) ;
#107 = APPROVAL_ROLE ( '' ) ;
#108 = DATE_AND_TIME ( #35, #232 ) ;
#109 = AXIS2_PLACEMENT_3D ( 'NONE', #163, #203, #122 ) ;
#110 = PERSON_AND_ORGANIZATION ( #88, #131 ) ;
#111 = VECTOR ( 'NONE', #199, 1000.000000000000000 ) ;
#112 = VECTOR ( 'NONE', #230, 1000.000000000000000 ) ;
#113 = PERSON_AND_ORGANIZATION ( #88, #131 ) ;
#114 = LOCAL_TIME ( 10, 8, 34.00000000000000000, #210 ) ;
#115 = CC_DESIGN_APPROVAL ( #134, ( #193 ) ) ;
#116 = VERTEX_POINT ( 'NONE', #183 ) ;
#117 = CALENDAR_DATE ( 2019, 23, 4 ) ;
#118 = CARTESIAN_POINT ( 'NONE',  ( -6.349999999999999645, -6.349999999999999645, 0.0000000000000000000 ) ) ;
#119 = DIRECTION ( 'NONE',  ( 0.0000000000000000000, 0.0000000000000000000, -1.000000000000000000 ) ) ;
#120 = CARTESIAN_POINT ( 'NONE',  ( -6.349999999999999645, 6.349999999999999645, 0.0000000000000000000 ) ) ;
#121 =( GEOMETRIC_REPRESENTATION_CONTEXT ( 3 ) GLOBAL_UNCERTAINTY_ASSIGNED_CONTEXT ( ( #236 ) ) GLOBAL_UNIT_ASSIGNED_CONTEXT ( ( #169, #125, #126 ) ) REPRESENTATION_CONTEXT ( 'NONE', 'WORKASPACE' ) );
#122 = DIRECTION ( 'NONE',  ( 0.0000000000000000000, 0.0000000000000000000, -1.000000000000000000 ) ) ;
#123 = CARTESIAN_POINT ( 'NONE',  ( -6.349999999999999645, -6.349999999999999645, 3.000000000000000000 ) ) ;
#124 = ORIENTED_EDGE ( 'NONE', *, *, #54, .T. ) ;
#125 =( NAMED_UNIT ( * ) PLANE_ANGLE_UNIT ( ) SI_UNIT ( $, .RADIAN. ) );
#126 =( NAMED_UNIT ( * ) SI_UNIT ( $, .STERADIAN. ) SOLID_ANGLE_UNIT ( ) );
#127 = AXIS2_PLACEMENT_3D ( 'NONE', #24, #74, #234 ) ;
#128 = LINE ( 'NONE', #49, #53 ) ;
#129 = APPROVAL_DATE_TIME ( #12, #235 ) ;
#130 = PLANE ( 'NONE',  #127 ) ;
#131 = ORGANIZATION ( 'UNSPECIFIED', 'UNSPECIFIED', '' ) ;
#132 = LINE ( 'NONE', #2, #211 ) ;
#133 = VECTOR ( 'NONE', #164, 1000.000000000000000 ) ;
#134 = APPROVAL ( #187, 'UNSPECIFIED' ) ;
#135 = ORIENTED_EDGE ( 'NONE', *, *, #43, .F. ) ;
#136 = APPROVAL_PERSON_ORGANIZATION ( #192, #28, #208 ) ;
#137 = AXIS2_PLACEMENT_3D ( 'NONE', #221, #119, #86 ) ;
#138 = CARTESIAN_POINT ( 'NONE',  ( -6.349999999999999645, -6.349999999999999645, 3.000000000000000000 ) ) ;
#139 = VERTEX_POINT ( 'NONE', #205 ) ;
#140 = CC_DESIGN_PERSON_AND_ORGANIZATION_ASSIGNMENT ( #153, #105, ( #21 ) ) ;
#141 = DIRECTION ( 'NONE',  ( 0.0000000000000000000, -1.000000000000000000, 0.0000000000000000000 ) ) ;
#142 = VERTEX_POINT ( 'NONE', #162 ) ;
#143 = LOCAL_TIME ( 10, 8, 34.00000000000000000, #81 ) ;
#144 = CARTESIAN_POINT ( 'NONE',  ( -6.349999999999999645, -6.349999999999999645, 0.0000000000000000000 ) ) ;
#145 = LINE ( 'NONE', #123, #220 ) ;
#146 = ORIENTED_EDGE ( 'NONE', *, *, #172, .F. ) ;
#147 = CARTESIAN_POINT ( 'NONE',  ( 6.349999999999999645, 6.349999999999999645, 0.0000000000000000000 ) ) ;
#148 = ADVANCED_FACE ( 'NONE', ( #84 ), #32, .F. ) ;
#149 = ORIENTED_EDGE ( 'NONE', *, *, #97, .T. ) ;
#150 = AXIS2_PLACEMENT_3D ( 'NONE', #58, #209, #71 ) ;
#151 = LINE ( 'NONE', #82, #111 ) ;
#152 = CARTESIAN_POINT ( 'NONE',  ( 6.349999999999999645, -6.349999999999999645, 3.000000000000000000 ) ) ;
#153 = PERSON_AND_ORGANIZATION ( #88, #131 ) ;
#154 = LINE ( 'NONE', #33, #186 ) ;
#155 = CLOSED_SHELL ( 'NONE', ( #59, #215, #10, #168, #148, #40 ) ) ;
#156 = CC_DESIGN_APPROVAL ( #235, ( #21 ) ) ;
#157 = VECTOR ( 'NONE', #72, 1000.000000000000000 ) ;
#158 = ORIENTED_EDGE ( 'NONE', *, *, #212, .T. ) ;
#159 = DIRECTION ( 'NONE',  ( 0.0000000000000000000, 0.0000000000000000000, -1.000000000000000000 ) ) ;
#160 = CC_DESIGN_PERSON_AND_ORGANIZATION_ASSIGNMENT ( #113, #55, ( #106 ) ) ;
#161 = ORIENTED_EDGE ( 'NONE', *, *, #185, .F. ) ;
#162 = CARTESIAN_POINT ( 'NONE',  ( -6.349999999999999645, -6.349999999999999645, 3.000000000000000000 ) ) ;
#163 = CARTESIAN_POINT ( 'NONE',  ( -6.349999999999999645, 6.349999999999999645, 3.000000000000000000 ) ) ;
#164 = DIRECTION ( 'NONE',  ( 0.0000000000000000000, 0.0000000000000000000, -1.000000000000000000 ) ) ;
#165 = APPLICATION_CONTEXT ( 'configuration controlled 3d designs of mechanical parts and assemblies' ) ;
#166 = VECTOR ( 'NONE', #83, 1000.000000000000000 ) ;
#167 = DATE_TIME_ROLE ( 'creation_date' ) ;
#168 = ADVANCED_FACE ( 'NONE', ( #61 ), #225, .F. ) ;
#169 =( LENGTH_UNIT ( ) NAMED_UNIT ( * ) SI_UNIT ( .MILLI., .METRE. ) );
#170 = ADVANCED_BREP_SHAPE_REPRESENTATION ( 'Web Model 49576_49576', ( #13, #150 ), #121 ) ;
#171 = DATE_AND_TIME ( #214, #143 ) ;
#172 = EDGE_CURVE ( 'NONE', #142, #139, #132, .T. ) ;
#173 = ORIENTED_EDGE ( 'NONE', *, *, #172, .T. ) ;
#174 = ORIENTED_EDGE ( 'NONE', *, *, #190, .T. ) ;
#175 = EDGE_LOOP ( 'NONE', ( #87, #135, #224, #178 ) ) ;
#176 = ORIENTED_EDGE ( 'NONE', *, *, #73, .T. ) ;
#177 = DIRECTION ( 'NONE',  ( 0.0000000000000000000, -1.000000000000000000, 0.0000000000000000000 ) ) ;
#178 = ORIENTED_EDGE ( 'NONE', *, *, #185, .T. ) ;
#179 = EDGE_CURVE ( 'NONE', #216, #6, #151, .T. ) ;
#180 = CARTESIAN_POINT ( 'NONE',  ( -6.349999999999999645, -6.349999999999999645, 3.000000000000000000 ) ) ;
#181 = CARTESIAN_POINT ( 'NONE',  ( 6.349999999999999645, -6.349999999999999645, 3.000000000000000000 ) ) ;
#182 = VERTEX_POINT ( 'NONE', #120 ) ;
#183 = CARTESIAN_POINT ( 'NONE',  ( 6.349999999999999645, -6.349999999999999645, 0.0000000000000000000 ) ) ;
#184 = CALENDAR_DATE ( 2019, 23, 4 ) ;
#185 = EDGE_CURVE ( 'NONE', #216, #229, #128, .T. ) ;
#186 = VECTOR ( 'NONE', #141, 1000.000000000000000 ) ;
#187 = APPROVAL_STATUS ( 'not_yet_approved' ) ;
#188 = CC_DESIGN_PERSON_AND_ORGANIZATION_ASSIGNMENT ( #110, #91, ( #79 ) ) ;
#189 = LINE ( 'NONE', #219, #57 ) ;
#190 = EDGE_CURVE ( 'NONE', #6, #142, #196, .T. ) ;
#191 = ORIENTED_EDGE ( 'NONE', *, *, #212, .F. ) ;
#192 = PERSON_AND_ORGANIZATION ( #88, #131 ) ;
#193 = PRODUCT_DEFINITION ( 'UNKNOWN', '', #79, #17 ) ;
#194 = APPROVAL_DATE_TIME ( #60, #28 ) ;
#195 = PERSON_AND_ORGANIZATION ( #88, #131 ) ;
#196 = LINE ( 'NONE', #138, #42 ) ;
#197 = EDGE_CURVE ( 'NONE', #116, #229, #189, .T. ) ;
#198 = COORDINATED_UNIVERSAL_TIME_OFFSET ( 5, 0, .BEHIND. ) ;
#199 = DIRECTION ( 'NONE',  ( -1.000000000000000000, 0.0000000000000000000, 0.0000000000000000000 ) ) ;
#200 = DIRECTION ( 'NONE',  ( 1.000000000000000000, 0.0000000000000000000, 0.0000000000000000000 ) ) ;
#201 = DIRECTION ( 'NONE',  ( 0.0000000000000000000, -1.000000000000000000, 0.0000000000000000000 ) ) ;
#202 = PERSON_AND_ORGANIZATION ( #88, #131 ) ;
#203 = DIRECTION ( 'NONE',  ( 0.0000000000000000000, -1.000000000000000000, 0.0000000000000000000 ) ) ;
#204 = SHAPE_DEFINITION_REPRESENTATION ( #233, #170 ) ;
#205 = CARTESIAN_POINT ( 'NONE',  ( 6.349999999999999645, -6.349999999999999645, 3.000000000000000000 ) ) ;
#206 = APPLICATION_CONTEXT ( 'configuration controlled 3d designs of mechanical parts and assemblies' ) ;
#207 = PERSON_AND_ORGANIZATION ( #88, #131 ) ;
#208 = APPROVAL_ROLE ( '' ) ;
#209 = DIRECTION ( 'NONE',  ( 0.0000000000000000000, 0.0000000000000000000, 1.000000000000000000 ) ) ;
#210 = COORDINATED_UNIVERSAL_TIME_OFFSET ( 5, 0, .BEHIND. ) ;
#211 = VECTOR ( 'NONE', #200, 1000.000000000000000 ) ;
#212 = EDGE_CURVE ( 'NONE', #139, #116, #95, .T. ) ;
#213 = ORIENTED_EDGE ( 'NONE', *, *, #97, .F. ) ;
#214 = CALENDAR_DATE ( 2019, 23, 4 ) ;
#215 = ADVANCED_FACE ( 'NONE', ( #104 ), #3, .F. ) ;
#216 = VERTEX_POINT ( 'NONE', #223 ) ;
#217 = LINE ( 'NONE', #152, #112 ) ;
#218 = APPROVAL_PERSON_ORGANIZATION ( #67, #235, #56 ) ;
#219 = CARTESIAN_POINT ( 'NONE',  ( 6.349999999999999645, -6.349999999999999645, 0.0000000000000000000 ) ) ;
#220 = VECTOR ( 'NONE', #66, 1000.000000000000000 ) ;
#221 = CARTESIAN_POINT ( 'NONE',  ( 0.0000000000000000000, 0.0000000000000000000, 0.0000000000000000000 ) ) ;
#222 = CC_DESIGN_PERSON_AND_ORGANIZATION_ASSIGNMENT ( #202, #89, ( #79 ) ) ;
#223 = CARTESIAN_POINT ( 'NONE',  ( 6.349999999999999645, 6.349999999999999645, 3.000000000000000000 ) ) ;
#224 = ORIENTED_EDGE ( 'NONE', *, *, #179, .F. ) ;
#225 = PLANE ( 'NONE',  #96 ) ;
#226 = ORIENTED_EDGE ( 'NONE', *, *, #197, .T. ) ;
#227 = EDGE_CURVE ( 'NONE', #229, #182, #15, .T. ) ;
#228 = LOCAL_TIME ( 10, 8, 34.00000000000000000, #30 ) ;
#229 = VERTEX_POINT ( 'NONE', #147 ) ;
#230 = DIRECTION ( 'NONE',  ( 0.0000000000000000000, 1.000000000000000000, 0.0000000000000000000 ) ) ;
#231 = ORIENTED_EDGE ( 'NONE', *, *, #54, .F. ) ;
#232 = LOCAL_TIME ( 10, 8, 34.00000000000000000, #198 ) ;
#233 = PRODUCT_DEFINITION_SHAPE ( 'NONE', 'NONE',  #193 ) ;
#234 = DIRECTION ( 'NONE',  ( 0.0000000000000000000, 1.000000000000000000, 0.0000000000000000000 ) ) ;
#235 = APPROVAL ( #5, 'UNSPECIFIED' ) ;
#236 = UNCERTAINTY_MEASURE_WITH_UNIT (LENGTH_MEASURE( 1.000000000000000082E-05 ), #169, 'distance_accuracy_value', 'NONE');
#237 = APPROVAL_PERSON_ORGANIZATION ( #195, #134, #107 ) ;
ENDSEC;
END-ISO-10303-21;
