ISO-10303-21;
HEADER;
FILE_DESCRIPTION (( 'STEP AP203' ),
    '1' );
FILE_NAME ('Web Model 84460_47196.step',
    '2017-04-03T16:49:48',
    ( '' ),
    ( '' ),
    'SwSTEP 2.0',
    'SolidWorks 2016',
    '' );
FILE_SCHEMA (( 'CONFIG_CONTROL_DESIGN' ));
ENDSEC;

DATA;
#1 = ADVANCED_FACE ( 'NONE', ( #148 ), #124, .T. ) ;
#2 = VERTEX_POINT ( 'NONE', #169 ) ;
#3 = AXIS2_PLACEMENT_3D ( 'NONE', #153, #115, #20 ) ;
#4 = DIRECTION ( 'NONE',  ( 1.000000000000000000, 0.0000000000000000000, 0.0000000000000000000 ) ) ;
#5 = LOCAL_TIME ( 12, 49, 48.00000000000000000, #70 ) ;
#6 = ORIENTED_EDGE ( 'NONE', *, *, #37, .T. ) ;
#7 = CALENDAR_DATE ( 2017, 3, 4 ) ;
#8 = CARTESIAN_POINT ( 'NONE',  ( 0.0000000000000000000, 0.0000000000000000000, 0.0000000000000000000 ) ) ;
#9 = CC_DESIGN_PERSON_AND_ORGANIZATION_ASSIGNMENT ( #22, #109, ( #21 ) ) ;
#10 = DIRECTION ( 'NONE',  ( 1.000000000000000000, 0.0000000000000000000, 0.0000000000000000000 ) ) ;
#11 = CIRCLE ( 'NONE', #104, 5.000000000000000000 ) ;
#12 = DIRECTION ( 'NONE',  ( 0.0000000000000000000, 0.0000000000000000000, 1.000000000000000000 ) ) ;
#13 = DIRECTION ( 'NONE',  ( 0.0000000000000000000, 0.0000000000000000000, 1.000000000000000000 ) ) ;
#14 = AXIS2_PLACEMENT_3D ( 'NONE', #152, #12, #116 ) ;
#15 = CC_DESIGN_PERSON_AND_ORGANIZATION_ASSIGNMENT ( #156, #92, ( #137 ) ) ;
#16 =( NAMED_UNIT ( * ) PLANE_ANGLE_UNIT ( ) SI_UNIT ( $, .RADIAN. ) );
#17 = COORDINATED_UNIVERSAL_TIME_OFFSET ( 5, 0, .BEHIND. ) ;
#18 = CARTESIAN_POINT ( 'NONE',  ( 0.0000000000000000000, 0.0000000000000000000, -1.300000000000000000 ) ) ;
#19 = VECTOR ( 'NONE', #88, 1000.000000000000000 ) ;
#20 = DIRECTION ( 'NONE',  ( 1.000000000000000000, 0.0000000000000000000, -0.0000000000000000000 ) ) ;
#21 = SECURITY_CLASSIFICATION ( '', '', #39 ) ;
#22 = PERSON_AND_ORGANIZATION ( #77, #23 ) ;
#23 = ORGANIZATION ( 'UNSPECIFIED', 'UNSPECIFIED', '' ) ;
#24 = COORDINATED_UNIVERSAL_TIME_OFFSET ( 5, 0, .BEHIND. ) ;
#25 = APPROVAL_ROLE ( '' ) ;
#26 = PERSON_AND_ORGANIZATION_ROLE ( 'design_supplier' ) ;
#27 = DIRECTION ( 'NONE',  ( 0.0000000000000000000, 0.0000000000000000000, 1.000000000000000000 ) ) ;
#28 = CC_DESIGN_SECURITY_CLASSIFICATION ( #21, ( #137 ) ) ;
#29 = LINE ( 'NONE', #76, #19 ) ;
#30 = ORIENTED_EDGE ( 'NONE', *, *, #47, .F. ) ;
#31 = CLOSED_SHELL ( 'NONE', ( #171, #133, #54, #1 ) ) ;
#32 = EDGE_CURVE ( 'NONE', #118, #121, #46, .T. ) ;
#33 = PERSON_AND_ORGANIZATION ( #77, #23 ) ;
#34 = SHAPE_DEFINITION_REPRESENTATION ( #162, #41 ) ;
#35 = APPROVAL_PERSON_ORGANIZATION ( #101, #130, #44 ) ;
#36 = CC_DESIGN_APPROVAL ( #45, ( #21 ) ) ;
#37 = EDGE_CURVE ( 'NONE', #2, #121, #166, .T. ) ;
#38 = PRODUCT_DEFINITION ( 'UNKNOWN', '', #137, #147 ) ;
#39 = SECURITY_CLASSIFICATION_LEVEL ( 'unclassified' ) ;
#40 = EDGE_LOOP ( 'NONE', ( #86, #142, #96, #163 ) ) ;
#41 = ADVANCED_BREP_SHAPE_REPRESENTATION ( 'Web Model 84460_47196', ( #127, #84 ), #135 ) ;
#42 = EDGE_CURVE ( 'NONE', #107, #2, #29, .T. ) ;
#43 = DATE_AND_TIME ( #114, #5 ) ;
#44 = APPROVAL_ROLE ( '' ) ;
#45 = APPROVAL ( #157, 'UNSPECIFIED' ) ;
#46 = LINE ( 'NONE', #141, #89 ) ;
#47 = EDGE_CURVE ( 'NONE', #107, #118, #66, .T. ) ;
#48 = APPROVAL_DATE_TIME ( #119, #130 ) ;
#49 = EDGE_CURVE ( 'NONE', #118, #107, #112, .T. ) ;
#50 = DATE_AND_TIME ( #123, #158 ) ;
#51 = CARTESIAN_POINT ( 'NONE',  ( -5.000000000000000000, 6.123233995736766300E-016, -1.300000000000000000 ) ) ;
#52 = APPROVAL_STATUS ( 'not_yet_approved' ) ;
#53 = APPROVAL_PERSON_ORGANIZATION ( #83, #173, #25 ) ;
#54 = ADVANCED_FACE ( 'NONE', ( #55 ), #58, .F. ) ;
#55 = FACE_OUTER_BOUND ( 'NONE', #64, .T. ) ;
#56 = CARTESIAN_POINT ( 'NONE',  ( 0.0000000000000000000, 0.0000000000000000000, -1.300000000000000000 ) ) ;
#57 = AXIS2_PLACEMENT_3D ( 'NONE', #132, #172, #4 ) ;
#58 = PLANE ( 'NONE',  #90 ) ;
#59 = LOCAL_TIME ( 12, 49, 48.00000000000000000, #129 ) ;
#60 = CALENDAR_DATE ( 2017, 3, 4 ) ;
#61 = CC_DESIGN_DATE_AND_TIME_ASSIGNMENT ( #98, #138, ( #21 ) ) ;
#62 = ORIENTED_EDGE ( 'NONE', *, *, #49, .F. ) ;
#63 = DIRECTION ( 'NONE',  ( 0.0000000000000000000, 0.0000000000000000000, 1.000000000000000000 ) ) ;
#64 = EDGE_LOOP ( 'NONE', ( #30, #62 ) ) ;
#65 = DIRECTION ( 'NONE',  ( 1.000000000000000000, 0.0000000000000000000, 0.0000000000000000000 ) ) ;
#66 = CIRCLE ( 'NONE', #117, 5.000000000000000000 ) ;
#67 = DATE_TIME_ROLE ( 'creation_date' ) ;
#68 = APPLICATION_PROTOCOL_DEFINITION ( 'international standard', 'config_control_design', 1994, #93 ) ;
#69 = CC_DESIGN_PERSON_AND_ORGANIZATION_ASSIGNMENT ( #126, #175, ( #91 ) ) ;
#70 = COORDINATED_UNIVERSAL_TIME_OFFSET ( 5, 0, .BEHIND. ) ;
#71 = DIRECTION ( 'NONE',  ( 0.0000000000000000000, 0.0000000000000000000, 1.000000000000000000 ) ) ;
#72 = CYLINDRICAL_SURFACE ( 'NONE', #108, 5.000000000000000000 ) ;
#73 = LOCAL_TIME ( 12, 49, 48.00000000000000000, #144 ) ;
#74 = UNCERTAINTY_MEASURE_WITH_UNIT (LENGTH_MEASURE( 1.000000000000000100E-005 ), #94, 'distance_accuracy_value', 'NONE');
#75 = CARTESIAN_POINT ( 'NONE',  ( -5.000000000000000000, 6.123233995736766300E-016, 0.0000000000000000000 ) ) ;
#76 = CARTESIAN_POINT ( 'NONE',  ( 5.000000000000000000, 0.0000000000000000000, -1.300000000000000000 ) ) ;
#77 = PERSON ( 'UNSPECIFIED', 'UNSPECIFIED', 'UNSPECIFIED', ('UNSPECIFIED'), ('UNSPECIFIED'), ('UNSPECIFIED') ) ;
#78 = EDGE_LOOP ( 'NONE', ( #6, #99 ) ) ;
#79 = ORIENTED_EDGE ( 'NONE', *, *, #32, .F. ) ;
#80 = CC_DESIGN_DATE_AND_TIME_ASSIGNMENT ( #168, #67, ( #38 ) ) ;
#81 = CARTESIAN_POINT ( 'NONE',  ( 0.0000000000000000000, 0.0000000000000000000, 0.0000000000000000000 ) ) ;
#82 = PERSON_AND_ORGANIZATION ( #77, #23 ) ;
#83 = PERSON_AND_ORGANIZATION ( #77, #23 ) ;
#84 = AXIS2_PLACEMENT_3D ( 'NONE', #8, #13, #65 ) ;
#85 = PERSON_AND_ORGANIZATION ( #77, #23 ) ;
#86 = ORIENTED_EDGE ( 'NONE', *, *, #47, .T. ) ;
#87 = CC_DESIGN_PERSON_AND_ORGANIZATION_ASSIGNMENT ( #85, #105, ( #38 ) ) ;
#88 = DIRECTION ( 'NONE',  ( 0.0000000000000000000, 0.0000000000000000000, 1.000000000000000000 ) ) ;
#89 = VECTOR ( 'NONE', #155, 1000.000000000000000 ) ;
#90 = AXIS2_PLACEMENT_3D ( 'NONE', #18, #160, #146 ) ;
#91 = PRODUCT ( 'Web Model 84460_47196', 'Web Model 84460_47196', '', ( #150 ) ) ;
#92 = PERSON_AND_ORGANIZATION_ROLE ( 'creator' ) ;
#93 = APPLICATION_CONTEXT ( 'configuration controlled 3d designs of mechanical parts and assemblies' ) ;
#94 =( LENGTH_UNIT ( ) NAMED_UNIT ( * ) SI_UNIT ( .MILLI., .METRE. ) );
#95 = EDGE_CURVE ( 'NONE', #121, #2, #11, .T. ) ;
#96 = ORIENTED_EDGE ( 'NONE', *, *, #37, .F. ) ;
#97 = DIRECTION ( 'NONE',  ( 0.0000000000000000000, 0.0000000000000000000, 1.000000000000000000 ) ) ;
#98 = DATE_AND_TIME ( #165, #59 ) ;
#99 = ORIENTED_EDGE ( 'NONE', *, *, #95, .T. ) ;
#100 =( NAMED_UNIT ( * ) SI_UNIT ( $, .STERADIAN. ) SOLID_ANGLE_UNIT ( ) );
#101 = PERSON_AND_ORGANIZATION ( #77, #23 ) ;
#102 = CARTESIAN_POINT ( 'NONE',  ( 5.000000000000000000, 0.0000000000000000000, -1.300000000000000000 ) ) ;
#103 = APPROVAL_ROLE ( '' ) ;
#104 = AXIS2_PLACEMENT_3D ( 'NONE', #81, #97, #164 ) ;
#105 = PERSON_AND_ORGANIZATION_ROLE ( 'creator' ) ;
#106 = CARTESIAN_POINT ( 'NONE',  ( 0.0000000000000000000, 0.0000000000000000000, -1.300000000000000000 ) ) ;
#107 = VERTEX_POINT ( 'NONE', #102 ) ;
#108 = AXIS2_PLACEMENT_3D ( 'NONE', #106, #71, #120 ) ;
#109 = PERSON_AND_ORGANIZATION_ROLE ( 'classification_officer' ) ;
#110 = ORIENTED_EDGE ( 'NONE', *, *, #95, .F. ) ;
#111 = CC_DESIGN_PERSON_AND_ORGANIZATION_ASSIGNMENT ( #82, #26, ( #137 ) ) ;
#112 = CIRCLE ( 'NONE', #125, 5.000000000000000000 ) ;
#113 = APPROVAL_STATUS ( 'not_yet_approved' ) ;
#114 = CALENDAR_DATE ( 2017, 3, 4 ) ;
#115 = DIRECTION ( 'NONE',  ( 0.0000000000000000000, 0.0000000000000000000, 1.000000000000000000 ) ) ;
#116 = DIRECTION ( 'NONE',  ( 1.000000000000000000, 0.0000000000000000000, 0.0000000000000000000 ) ) ;
#117 = AXIS2_PLACEMENT_3D ( 'NONE', #56, #63, #122 ) ;
#118 = VERTEX_POINT ( 'NONE', #51 ) ;
#119 = DATE_AND_TIME ( #7, #73 ) ;
#120 = DIRECTION ( 'NONE',  ( 1.000000000000000000, 0.0000000000000000000, 0.0000000000000000000 ) ) ;
#121 = VERTEX_POINT ( 'NONE', #75 ) ;
#122 = DIRECTION ( 'NONE',  ( 1.000000000000000000, 0.0000000000000000000, 0.0000000000000000000 ) ) ;
#123 = CALENDAR_DATE ( 2017, 3, 4 ) ;
#124 = PLANE ( 'NONE',  #3 ) ;
#125 = AXIS2_PLACEMENT_3D ( 'NONE', #170, #27, #10 ) ;
#126 = PERSON_AND_ORGANIZATION ( #77, #23 ) ;
#127 = MANIFOLD_SOLID_BREP ( 'Extrude1', #31 ) ;
#128 = ORIENTED_EDGE ( 'NONE', *, *, #42, .T. ) ;
#129 = COORDINATED_UNIVERSAL_TIME_OFFSET ( 5, 0, .BEHIND. ) ;
#130 = APPROVAL ( #113, 'UNSPECIFIED' ) ;
#131 = ORIENTED_EDGE ( 'NONE', *, *, #49, .T. ) ;
#132 = CARTESIAN_POINT ( 'NONE',  ( 0.0000000000000000000, 0.0000000000000000000, -1.300000000000000000 ) ) ;
#133 = ADVANCED_FACE ( 'NONE', ( #136 ), #72, .T. ) ;
#134 = LOCAL_TIME ( 12, 49, 48.00000000000000000, #24 ) ;
#135 =( GEOMETRIC_REPRESENTATION_CONTEXT ( 3 ) GLOBAL_UNCERTAINTY_ASSIGNED_CONTEXT ( ( #74 ) ) GLOBAL_UNIT_ASSIGNED_CONTEXT ( ( #94, #16, #100 ) ) REPRESENTATION_CONTEXT ( 'NONE', 'WORKASPACE' ) );
#136 = FACE_OUTER_BOUND ( 'NONE', #174, .T. ) ;
#137 = PRODUCT_DEFINITION_FORMATION_WITH_SPECIFIED_SOURCE ( 'ANY', '', #91, .NOT_KNOWN. ) ;
#138 = DATE_TIME_ROLE ( 'classification_date' ) ;
#139 = PRODUCT_RELATED_PRODUCT_CATEGORY ( 'detail', '', ( #91 ) ) ;
#140 = APPROVAL_PERSON_ORGANIZATION ( #33, #45, #103 ) ;
#141 = CARTESIAN_POINT ( 'NONE',  ( -5.000000000000000000, 6.123233995736766300E-016, -1.300000000000000000 ) ) ;
#142 = ORIENTED_EDGE ( 'NONE', *, *, #32, .T. ) ;
#143 = APPLICATION_PROTOCOL_DEFINITION ( 'international standard', 'config_control_design', 1994, #167 ) ;
#144 = COORDINATED_UNIVERSAL_TIME_OFFSET ( 5, 0, .BEHIND. ) ;
#145 = CC_DESIGN_APPROVAL ( #173, ( #38 ) ) ;
#146 = DIRECTION ( 'NONE',  ( 1.000000000000000000, 0.0000000000000000000, -0.0000000000000000000 ) ) ;
#147 = DESIGN_CONTEXT ( 'detailed design', #93, 'design' ) ;
#148 = FACE_OUTER_BOUND ( 'NONE', #78, .T. ) ;
#149 = CC_DESIGN_APPROVAL ( #130, ( #137 ) ) ;
#150 = MECHANICAL_CONTEXT ( 'NONE', #167, 'mechanical' ) ;
#151 = CYLINDRICAL_SURFACE ( 'NONE', #57, 5.000000000000000000 ) ;
#152 = CARTESIAN_POINT ( 'NONE',  ( 0.0000000000000000000, 0.0000000000000000000, 0.0000000000000000000 ) ) ;
#153 = CARTESIAN_POINT ( 'NONE',  ( 0.0000000000000000000, 0.0000000000000000000, 0.0000000000000000000 ) ) ;
#154 = APPROVAL_DATE_TIME ( #43, #45 ) ;
#155 = DIRECTION ( 'NONE',  ( 0.0000000000000000000, 0.0000000000000000000, 1.000000000000000000 ) ) ;
#156 = PERSON_AND_ORGANIZATION ( #77, #23 ) ;
#157 = APPROVAL_STATUS ( 'not_yet_approved' ) ;
#158 = LOCAL_TIME ( 12, 49, 48.00000000000000000, #17 ) ;
#159 = APPROVAL_DATE_TIME ( #50, #173 ) ;
#160 = DIRECTION ( 'NONE',  ( 0.0000000000000000000, 0.0000000000000000000, 1.000000000000000000 ) ) ;
#161 = FACE_OUTER_BOUND ( 'NONE', #40, .T. ) ;
#162 = PRODUCT_DEFINITION_SHAPE ( 'NONE', 'NONE',  #38 ) ;
#163 = ORIENTED_EDGE ( 'NONE', *, *, #42, .F. ) ;
#164 = DIRECTION ( 'NONE',  ( 1.000000000000000000, 0.0000000000000000000, 0.0000000000000000000 ) ) ;
#165 = CALENDAR_DATE ( 2017, 3, 4 ) ;
#166 = CIRCLE ( 'NONE', #14, 5.000000000000000000 ) ;
#167 = APPLICATION_CONTEXT ( 'configuration controlled 3d designs of mechanical parts and assemblies' ) ;
#168 = DATE_AND_TIME ( #60, #134 ) ;
#169 = CARTESIAN_POINT ( 'NONE',  ( 5.000000000000000000, 0.0000000000000000000, 0.0000000000000000000 ) ) ;
#170 = CARTESIAN_POINT ( 'NONE',  ( 0.0000000000000000000, 0.0000000000000000000, -1.300000000000000000 ) ) ;
#171 = ADVANCED_FACE ( 'NONE', ( #161 ), #151, .T. ) ;
#172 = DIRECTION ( 'NONE',  ( 0.0000000000000000000, 0.0000000000000000000, 1.000000000000000000 ) ) ;
#173 = APPROVAL ( #52, 'UNSPECIFIED' ) ;
#174 = EDGE_LOOP ( 'NONE', ( #79, #131, #128, #110 ) ) ;
#175 = PERSON_AND_ORGANIZATION_ROLE ( 'design_owner' ) ;
ENDSEC;
END-ISO-10303-21;
