ISO-10303-21;
HEADER;
FILE_DESCRIPTION (( 'STEP AP203' ),
    '1' );
FILE_NAME ('36936_36966.step',
    '2017-08-23T20:40:22',
    ( '' ),
    ( '' ),
    'SwSTEP 2.0',
    'SolidWorks 2016',
    '' );
FILE_SCHEMA (( 'CONFIG_CONTROL_DESIGN' ));
ENDSEC;

DATA;
#1 =( NAMED_UNIT ( * ) SI_UNIT ( $, .STERADIAN. ) SOLID_ANGLE_UNIT ( ) );
#2 = ADVANCED_FACE ( 'NONE', ( #126 ), #93, .T. ) ;
#3 = AXIS2_PLACEMENT_3D ( 'NONE', #87, #146, #86 ) ;
#4 = APPROVAL_ROLE ( '' ) ;
#5 = DATE_AND_TIME ( #169, #91 ) ;
#6 = VECTOR ( 'NONE', #28, 1000.000000000000000 ) ;
#7 = CARTESIAN_POINT ( 'NONE',  ( 37.49999999999999300, 4.592425496802573600E-015, -2.500000000000000000 ) ) ;
#8 = MANIFOLD_SOLID_BREP ( 'Boss-Extrude1', #159 ) ;
#9 = CIRCLE ( 'NONE', #155, 37.49999999999999300 ) ;
#10 = APPROVAL ( #108, 'UNSPECIFIED' ) ;
#11 = ORIENTED_EDGE ( 'NONE', *, *, #143, .T. ) ;
#12 = ADVANCED_BREP_SHAPE_REPRESENTATION ( '36936_36966', ( #8, #61 ), #165 ) ;
#13 = SHAPE_DEFINITION_REPRESENTATION ( #41, #12 ) ;
#14 = EDGE_CURVE ( 'NONE', #16, #67, #26, .T. ) ;
#15 = APPROVAL_DATE_TIME ( #5, #132 ) ;
#16 = VERTEX_POINT ( 'NONE', #115 ) ;
#17 = CC_DESIGN_PERSON_AND_ORGANIZATION_ASSIGNMENT ( #81, #162, ( #78 ) ) ;
#18 = DIRECTION ( 'NONE',  ( 1.000000000000000000, 0.0000000000000000000, -0.0000000000000000000 ) ) ;
#19 = EDGE_CURVE ( 'NONE', #16, #153, #122, .T. ) ;
#20 = CARTESIAN_POINT ( 'NONE',  ( 37.49999999999999300, 4.592425496802573600E-015, 2.500000000000000000 ) ) ;
#21 = VECTOR ( 'NONE', #109, 1000.000000000000000 ) ;
#22 = APPROVAL_STATUS ( 'not_yet_approved' ) ;
#23 = APPLICATION_PROTOCOL_DEFINITION ( 'international standard', 'config_control_design', 1994, #85 ) ;
#24 = CYLINDRICAL_SURFACE ( 'NONE', #118, 37.49999999999999300 ) ;
#25 = AXIS2_PLACEMENT_3D ( 'NONE', #119, #48, #137 ) ;
#26 = CIRCLE ( 'NONE', #52, 37.49999999999999300 ) ;
#27 = LOCAL_TIME ( 16, 40, 22.00000000000000000, #158 ) ;
#28 = DIRECTION ( 'NONE',  ( -0.0000000000000000000, -0.0000000000000000000, -1.000000000000000000 ) ) ;
#29 = ORIENTED_EDGE ( 'NONE', *, *, #19, .T. ) ;
#30 = CARTESIAN_POINT ( 'NONE',  ( 0.0000000000000000000, 0.0000000000000000000, 2.500000000000000000 ) ) ;
#31 = APPROVAL ( #22, 'UNSPECIFIED' ) ;
#32 = LOCAL_TIME ( 16, 40, 22.00000000000000000, #111 ) ;
#33 = ORIENTED_EDGE ( 'NONE', *, *, #19, .F. ) ;
#34 = DATE_TIME_ROLE ( 'creation_date' ) ;
#35 = EDGE_CURVE ( 'NONE', #153, #75, #157, .T. ) ;
#36 = CARTESIAN_POINT ( 'NONE',  ( 0.0000000000000000000, 0.0000000000000000000, 2.500000000000000000 ) ) ;
#37 = CC_DESIGN_PERSON_AND_ORGANIZATION_ASSIGNMENT ( #38, #160, ( #56 ) ) ;
#38 = PERSON_AND_ORGANIZATION ( #141, #112 ) ;
#39 = EDGE_LOOP ( 'NONE', ( #33, #170, #140, #89 ) ) ;
#40 = PLANE ( 'NONE',  #145 ) ;
#41 = PRODUCT_DEFINITION_SHAPE ( 'NONE', 'NONE',  #149 ) ;
#42 = CARTESIAN_POINT ( 'NONE',  ( 0.0000000000000000000, 0.0000000000000000000, 2.500000000000000000 ) ) ;
#43 = CARTESIAN_POINT ( 'NONE',  ( 0.0000000000000000000, 0.0000000000000000000, 2.500000000000000000 ) ) ;
#44 = CARTESIAN_POINT ( 'NONE',  ( 0.0000000000000000000, 0.0000000000000000000, -2.500000000000000000 ) ) ;
#45 = CC_DESIGN_DATE_AND_TIME_ASSIGNMENT ( #117, #34, ( #149 ) ) ;
#46 = MECHANICAL_CONTEXT ( 'NONE', #49, 'mechanical' ) ;
#47 = PERSON_AND_ORGANIZATION ( #141, #112 ) ;
#48 = DIRECTION ( 'NONE',  ( 0.0000000000000000000, 0.0000000000000000000, 1.000000000000000000 ) ) ;
#49 = APPLICATION_CONTEXT ( 'configuration controlled 3d designs of mechanical parts and assemblies' ) ;
#50 = CIRCLE ( 'NONE', #25, 37.49999999999999300 ) ;
#51 = PRODUCT_RELATED_PRODUCT_CATEGORY ( 'detail', '', ( #78 ) ) ;
#52 = AXIS2_PLACEMENT_3D ( 'NONE', #30, #130, #174 ) ;
#53 = LINE ( 'NONE', #62, #21 ) ;
#54 = DIRECTION ( 'NONE',  ( -0.0000000000000000000, -0.0000000000000000000, -1.000000000000000000 ) ) ;
#55 = FACE_OUTER_BOUND ( 'NONE', #39, .T. ) ;
#56 = PRODUCT_DEFINITION_FORMATION_WITH_SPECIFIED_SOURCE ( 'ANY', '', #78, .NOT_KNOWN. ) ;
#57 = ADVANCED_FACE ( 'NONE', ( #144 ), #40, .T. ) ;
#58 = CC_DESIGN_PERSON_AND_ORGANIZATION_ASSIGNMENT ( #147, #96, ( #92 ) ) ;
#59 = PLANE ( 'NONE',  #3 ) ;
#60 = ADVANCED_FACE ( 'NONE', ( #55 ), #24, .T. ) ;
#61 = AXIS2_PLACEMENT_3D ( 'NONE', #116, #166, #98 ) ;
#62 = CARTESIAN_POINT ( 'NONE',  ( -37.49999999999999300, 0.0000000000000000000, 2.500000000000000000 ) ) ;
#63 = CARTESIAN_POINT ( 'NONE',  ( -37.49999999999999300, 0.0000000000000000000, -2.500000000000000000 ) ) ;
#64 = APPROVAL_DATE_TIME ( #171, #10 ) ;
#65 = APPROVAL_PERSON_ORGANIZATION ( #68, #31, #107 ) ;
#66 = APPROVAL_PERSON_ORGANIZATION ( #128, #10, #88 ) ;
#67 = VERTEX_POINT ( 'NONE', #120 ) ;
#68 = PERSON_AND_ORGANIZATION ( #141, #112 ) ;
#69 = DIRECTION ( 'NONE',  ( -0.0000000000000000000, -0.0000000000000000000, -1.000000000000000000 ) ) ;
#70 = LOCAL_TIME ( 16, 40, 22.00000000000000000, #90 ) ;
#71 = ORIENTED_EDGE ( 'NONE', *, *, #175, .F. ) ;
#72 = DIRECTION ( 'NONE',  ( 0.0000000000000000000, 0.0000000000000000000, 1.000000000000000000 ) ) ;
#73 = PERSON_AND_ORGANIZATION_ROLE ( 'creator' ) ;
#74 = CALENDAR_DATE ( 2017, 23, 8 ) ;
#75 = VERTEX_POINT ( 'NONE', #63 ) ;
#76 = DIRECTION ( 'NONE',  ( 0.0000000000000000000, 0.0000000000000000000, 1.000000000000000000 ) ) ;
#77 =( LENGTH_UNIT ( ) NAMED_UNIT ( * ) SI_UNIT ( .MILLI., .METRE. ) );
#78 = PRODUCT ( '36936_36966', '36936_36966', '', ( #46 ) ) ;
#79 = CC_DESIGN_DATE_AND_TIME_ASSIGNMENT ( #131, #106, ( #92 ) ) ;
#80 = EDGE_LOOP ( 'NONE', ( #71, #148 ) ) ;
#81 = PERSON_AND_ORGANIZATION ( #141, #112 ) ;
#82 = DIRECTION ( 'NONE',  ( 0.0000000000000000000, 0.0000000000000000000, 1.000000000000000000 ) ) ;
#83 = DIRECTION ( 'NONE',  ( -1.000000000000000000, 0.0000000000000000000, 0.0000000000000000000 ) ) ;
#84 = UNCERTAINTY_MEASURE_WITH_UNIT (LENGTH_MEASURE( 1.000000000000000100E-005 ), #77, 'distance_accuracy_value', 'NONE');
#85 = APPLICATION_CONTEXT ( 'configuration controlled 3d designs of mechanical parts and assemblies' ) ;
#86 = DIRECTION ( 'NONE',  ( 1.000000000000000000, 0.0000000000000000000, -0.0000000000000000000 ) ) ;
#87 = CARTESIAN_POINT ( 'NONE',  ( 0.0000000000000000000, 0.0000000000000000000, -2.500000000000000000 ) ) ;
#88 = APPROVAL_ROLE ( '' ) ;
#89 = ORIENTED_EDGE ( 'NONE', *, *, #175, .T. ) ;
#90 = COORDINATED_UNIVERSAL_TIME_OFFSET ( 5, 0, .BEHIND. ) ;
#91 = LOCAL_TIME ( 16, 40, 22.00000000000000000, #103 ) ;
#92 = SECURITY_CLASSIFICATION ( '', '', #97 ) ;
#93 = CYLINDRICAL_SURFACE ( 'NONE', #167, 37.49999999999999300 ) ;
#94 = CARTESIAN_POINT ( 'NONE',  ( 0.0000000000000000000, 0.0000000000000000000, 2.500000000000000000 ) ) ;
#95 = COORDINATED_UNIVERSAL_TIME_OFFSET ( 5, 0, .BEHIND. ) ;
#96 = PERSON_AND_ORGANIZATION_ROLE ( 'classification_officer' ) ;
#97 = SECURITY_CLASSIFICATION_LEVEL ( 'unclassified' ) ;
#98 = DIRECTION ( 'NONE',  ( 1.000000000000000000, 0.0000000000000000000, 0.0000000000000000000 ) ) ;
#99 = APPLICATION_PROTOCOL_DEFINITION ( 'international standard', 'config_control_design', 1994, #49 ) ;
#100 = PERSON_AND_ORGANIZATION ( #141, #112 ) ;
#101 = EDGE_LOOP ( 'NONE', ( #135, #29, #114, #113 ) ) ;
#102 = PERSON_AND_ORGANIZATION_ROLE ( 'creator' ) ;
#103 = COORDINATED_UNIVERSAL_TIME_OFFSET ( 5, 0, .BEHIND. ) ;
#104 = EDGE_LOOP ( 'NONE', ( #11, #129 ) ) ;
#105 = DIRECTION ( 'NONE',  ( -1.000000000000000000, 0.0000000000000000000, 0.0000000000000000000 ) ) ;
#106 = DATE_TIME_ROLE ( 'classification_date' ) ;
#107 = APPROVAL_ROLE ( '' ) ;
#108 = APPROVAL_STATUS ( 'not_yet_approved' ) ;
#109 = DIRECTION ( 'NONE',  ( -0.0000000000000000000, -0.0000000000000000000, -1.000000000000000000 ) ) ;
#110 = FACE_OUTER_BOUND ( 'NONE', #80, .T. ) ;
#111 = COORDINATED_UNIVERSAL_TIME_OFFSET ( 5, 0, .BEHIND. ) ;
#112 = ORGANIZATION ( 'UNSPECIFIED', 'UNSPECIFIED', '' ) ;
#113 = ORIENTED_EDGE ( 'NONE', *, *, #151, .F. ) ;
#114 = ORIENTED_EDGE ( 'NONE', *, *, #35, .T. ) ;
#115 = CARTESIAN_POINT ( 'NONE',  ( 37.49999999999999300, 4.592425496802573600E-015, 2.500000000000000000 ) ) ;
#116 = CARTESIAN_POINT ( 'NONE',  ( 0.0000000000000000000, 0.0000000000000000000, 0.0000000000000000000 ) ) ;
#117 = DATE_AND_TIME ( #127, #156 ) ;
#118 = AXIS2_PLACEMENT_3D ( 'NONE', #94, #54, #83 ) ;
#119 = CARTESIAN_POINT ( 'NONE',  ( 0.0000000000000000000, 0.0000000000000000000, -2.500000000000000000 ) ) ;
#120 = CARTESIAN_POINT ( 'NONE',  ( -37.49999999999999300, 0.0000000000000000000, 2.500000000000000000 ) ) ;
#121 = ADVANCED_FACE ( 'NONE', ( #110 ), #59, .F. ) ;
#122 = LINE ( 'NONE', #20, #6 ) ;
#123 = APPROVAL_DATE_TIME ( #134, #31 ) ;
#124 = DESIGN_CONTEXT ( 'detailed design', #85, 'design' ) ;
#125 = CC_DESIGN_APPROVAL ( #10, ( #56 ) ) ;
#126 = FACE_OUTER_BOUND ( 'NONE', #101, .T. ) ;
#127 = CALENDAR_DATE ( 2017, 23, 8 ) ;
#128 = PERSON_AND_ORGANIZATION ( #141, #112 ) ;
#129 = ORIENTED_EDGE ( 'NONE', *, *, #14, .T. ) ;
#130 = DIRECTION ( 'NONE',  ( 0.0000000000000000000, 0.0000000000000000000, 1.000000000000000000 ) ) ;
#131 = DATE_AND_TIME ( #173, #32 ) ;
#132 = APPROVAL ( #164, 'UNSPECIFIED' ) ;
#133 = DIRECTION ( 'NONE',  ( 1.000000000000000000, 0.0000000000000000000, 0.0000000000000000000 ) ) ;
#134 = DATE_AND_TIME ( #161, #27 ) ;
#135 = ORIENTED_EDGE ( 'NONE', *, *, #14, .F. ) ;
#136 = CC_DESIGN_PERSON_AND_ORGANIZATION_ASSIGNMENT ( #100, #102, ( #56 ) ) ;
#137 = DIRECTION ( 'NONE',  ( 1.000000000000000000, 0.0000000000000000000, 0.0000000000000000000 ) ) ;
#138 = DIRECTION ( 'NONE',  ( 1.000000000000000000, 0.0000000000000000000, 0.0000000000000000000 ) ) ;
#139 = PERSON_AND_ORGANIZATION ( #141, #112 ) ;
#140 = ORIENTED_EDGE ( 'NONE', *, *, #151, .T. ) ;
#141 = PERSON ( 'UNSPECIFIED', 'UNSPECIFIED', 'UNSPECIFIED', ('UNSPECIFIED'), ('UNSPECIFIED'), ('UNSPECIFIED') ) ;
#142 = APPROVAL_PERSON_ORGANIZATION ( #47, #132, #4 ) ;
#143 = EDGE_CURVE ( 'NONE', #67, #16, #9, .T. ) ;
#144 = FACE_OUTER_BOUND ( 'NONE', #104, .T. ) ;
#145 = AXIS2_PLACEMENT_3D ( 'NONE', #42, #82, #18 ) ;
#146 = DIRECTION ( 'NONE',  ( 0.0000000000000000000, 0.0000000000000000000, 1.000000000000000000 ) ) ;
#147 = PERSON_AND_ORGANIZATION ( #141, #112 ) ;
#148 = ORIENTED_EDGE ( 'NONE', *, *, #35, .F. ) ;
#149 = PRODUCT_DEFINITION ( 'UNKNOWN', '', #56, #124 ) ;
#150 = CC_DESIGN_PERSON_AND_ORGANIZATION_ASSIGNMENT ( #139, #73, ( #149 ) ) ;
#151 = EDGE_CURVE ( 'NONE', #67, #75, #53, .T. ) ;
#152 = CC_DESIGN_APPROVAL ( #31, ( #92 ) ) ;
#153 = VERTEX_POINT ( 'NONE', #7 ) ;
#154 = AXIS2_PLACEMENT_3D ( 'NONE', #44, #72, #133 ) ;
#155 = AXIS2_PLACEMENT_3D ( 'NONE', #36, #76, #138 ) ;
#156 = LOCAL_TIME ( 16, 40, 22.00000000000000000, #95 ) ;
#157 = CIRCLE ( 'NONE', #154, 37.49999999999999300 ) ;
#158 = COORDINATED_UNIVERSAL_TIME_OFFSET ( 5, 0, .BEHIND. ) ;
#159 = CLOSED_SHELL ( 'NONE', ( #2, #60, #57, #121 ) ) ;
#160 = PERSON_AND_ORGANIZATION_ROLE ( 'design_supplier' ) ;
#161 = CALENDAR_DATE ( 2017, 23, 8 ) ;
#162 = PERSON_AND_ORGANIZATION_ROLE ( 'design_owner' ) ;
#163 =( NAMED_UNIT ( * ) PLANE_ANGLE_UNIT ( ) SI_UNIT ( $, .RADIAN. ) );
#164 = APPROVAL_STATUS ( 'not_yet_approved' ) ;
#165 =( GEOMETRIC_REPRESENTATION_CONTEXT ( 3 ) GLOBAL_UNCERTAINTY_ASSIGNED_CONTEXT ( ( #84 ) ) GLOBAL_UNIT_ASSIGNED_CONTEXT ( ( #77, #163, #1 ) ) REPRESENTATION_CONTEXT ( 'NONE', 'WORKASPACE' ) );
#166 = DIRECTION ( 'NONE',  ( 0.0000000000000000000, 0.0000000000000000000, 1.000000000000000000 ) ) ;
#167 = AXIS2_PLACEMENT_3D ( 'NONE', #43, #69, #105 ) ;
#168 = CC_DESIGN_SECURITY_CLASSIFICATION ( #92, ( #56 ) ) ;
#169 = CALENDAR_DATE ( 2017, 23, 8 ) ;
#170 = ORIENTED_EDGE ( 'NONE', *, *, #143, .F. ) ;
#171 = DATE_AND_TIME ( #74, #70 ) ;
#172 = CC_DESIGN_APPROVAL ( #132, ( #149 ) ) ;
#173 = CALENDAR_DATE ( 2017, 23, 8 ) ;
#174 = DIRECTION ( 'NONE',  ( 1.000000000000000000, 0.0000000000000000000, 0.0000000000000000000 ) ) ;
#175 = EDGE_CURVE ( 'NONE', #75, #153, #50, .T. ) ;
ENDSEC;
END-ISO-10303-21;
