ISO-10303-21;
HEADER;
FILE_DESCRIPTION (( 'STEP AP214' ),
    '1' );
FILE_NAME ('4817-E0W.STEP',
    '2009-12-21T17:05:12',
    ( ' ' ),
    ( ' ' ),
    'SwSTEP 2.0',
    'SolidWorks 2009',
    '' );
FILE_SCHEMA (( 'AUTOMOTIVE_DESIGN' ));
ENDSEC;

DATA;
#1 = DIRECTION ( 'NONE',  ( 0.0000000000000000000, 1.000000000000000000, 0.0000000000000000000 ) ) ;
#2 = EDGE_LOOP ( 'NONE', ( #7, #3, #23, #87, #82, #79 ) ) ;
#3 = ORIENTED_EDGE ( 'NONE', *, *, #40, .T. ) ;
#4 = DIRECTION ( 'NONE',  ( -1.000000000000000000, 0.0000000000000000000, 0.0000000000000000000 ) ) ;
#5 =( NAMED_UNIT ( * ) PLANE_ANGLE_UNIT ( ) SI_UNIT ( $, .RADIAN. ) );
#6 = VERTEX_POINT ( 'NONE', #90 ) ;
#7 = ORIENTED_EDGE ( 'NONE', *, *, #54, .T. ) ;
#8 = ORIENTED_EDGE ( 'NONE', *, *, #18, .T. ) ;
#9 = ORIENTED_EDGE ( 'NONE', *, *, #86, .T. ) ;
#10 = ORIENTED_EDGE ( 'NONE', *, *, #16, .T. ) ;
#11 = ORIENTED_EDGE ( 'NONE', *, *, #39, .F. ) ;
#12 = EDGE_CURVE ( 'NONE', #52, #83, #94, .T. ) ;
#13 = ADVANCED_FACE ( 'NONE', ( #106 ), #109, .T. ) ;
#14 = ORIENTED_EDGE ( 'NONE', *, *, #81, .T. ) ;
#15 = ORIENTED_EDGE ( 'NONE', *, *, #22, .T. ) ;
#16 = EDGE_CURVE ( 'NONE', #19, #34, #114, .T. ) ;
#17 = ORIENTED_EDGE ( 'NONE', *, *, #80, .T. ) ;
#18 = EDGE_CURVE ( 'NONE', #85, #34, #203, .T. ) ;
#19 = VERTEX_POINT ( 'NONE', #304 ) ;
#20 = EDGE_LOOP ( 'NONE', ( #9, #17, #10, #21 ) ) ;
#21 = ORIENTED_EDGE ( 'NONE', *, *, #18, .F. ) ;
#22 = EDGE_CURVE ( 'NONE', #6, #49, #125, .T. ) ;
#23 = ORIENTED_EDGE ( 'NONE', *, *, #89, .T. ) ;
#24 = ORIENTED_EDGE ( 'NONE', *, *, #48, .T. ) ;
#25 = ORIENTED_EDGE ( 'NONE', *, *, #16, .F. ) ;
#26 = ORIENTED_EDGE ( 'NONE', *, *, #89, .F. ) ;
#27 = EDGE_LOOP ( 'NONE', ( #38, #42, #28, #24 ) ) ;
#28 = ORIENTED_EDGE ( 'NONE', *, *, #40, .F. ) ;
#29 = ORIENTED_EDGE ( 'NONE', *, *, #12, .T. ) ;
#30 = ORIENTED_EDGE ( 'NONE', *, *, #45, .T. ) ;
#31 = EDGE_LOOP ( 'NONE', ( #26, #15, #30, #29, #11, #84 ) ) ;
#32 = ADVANCED_FACE ( 'NONE', ( #200 ), #204, .T. ) ;
#33 = ADVANCED_FACE ( 'NONE', ( #195 ), #184, .F. ) ;
#34 = VERTEX_POINT ( 'NONE', #248 ) ;
#35 = EDGE_LOOP ( 'NONE', ( #25, #41, #14, #8 ) ) ;
#36 = CLOSED_SHELL ( 'NONE', ( #57, #43, #13, #32, #37, #33 ) ) ;
#37 = ADVANCED_FACE ( 'NONE', ( #247 ), #117, .T. ) ;
#38 = ORIENTED_EDGE ( 'NONE', *, *, #58, .F. ) ;
#39 = EDGE_CURVE ( 'NONE', #19, #83, #124, .T. ) ;
#40 = EDGE_CURVE ( 'NONE', #55, #6, #154, .T. ) ;
#41 = ORIENTED_EDGE ( 'NONE', *, *, #39, .T. ) ;
#42 = ORIENTED_EDGE ( 'NONE', *, *, #22, .F. ) ;
#43 = ADVANCED_FACE ( 'NONE', ( #150 ), #135, .T. ) ;
#44 = MANIFOLD_SOLID_BREP ( 'NONE', #36 ) ;
#45 = EDGE_CURVE ( 'NONE', #49, #52, #220, .T. ) ;
#46 = ORIENTED_EDGE ( 'NONE', *, *, #48, .F. ) ;
#47 = VERTEX_POINT ( 'NONE', #215 ) ;
#48 = EDGE_CURVE ( 'NONE', #55, #47, #303, .T. ) ;
#49 = VERTEX_POINT ( 'NONE', #299 ) ;
#50 = ORIENTED_EDGE ( 'NONE', *, *, #54, .F. ) ;
#51 = ORIENTED_EDGE ( 'NONE', *, *, #45, .F. ) ;
#52 = VERTEX_POINT ( 'NONE', #298 ) ;
#53 = EDGE_LOOP ( 'NONE', ( #51, #56, #46, #50 ) ) ;
#54 = EDGE_CURVE ( 'NONE', #52, #55, #297, .T. ) ;
#55 = VERTEX_POINT ( 'NONE', #292 ) ;
#56 = ORIENTED_EDGE ( 'NONE', *, *, #58, .T. ) ;
#57 = ADVANCED_FACE ( 'NONE', ( #291 ), #180, .F. ) ;
#58 = EDGE_CURVE ( 'NONE', #49, #47, #179, .T. ) ;
#59 =( NAMED_UNIT ( * ) SI_UNIT ( $, .STERADIAN. ) SOLID_ANGLE_UNIT ( ) );
#60 =( NAMED_UNIT ( * ) SI_UNIT ( $, .STERADIAN. ) SOLID_ANGLE_UNIT ( ) );
#61 = ADVANCED_BREP_SHAPE_REPRESENTATION ( '4817-E0W', ( #44, #322 ), #73 ) ;
#62 = SURFACE_STYLE_FILL_AREA ( #71 ) ;
#63 =( LENGTH_UNIT ( ) NAMED_UNIT ( * ) SI_UNIT ( .MILLI., .METRE. ) );
#64 = UNCERTAINTY_MEASURE_WITH_UNIT (LENGTH_MEASURE( 1.000000000000000100E-005 ), #63, 'distance_accuracy_value', 'NONE');
#65 = UNCERTAINTY_MEASURE_WITH_UNIT (LENGTH_MEASURE( 1.000000000000000100E-005 ), #96, 'distance_accuracy_value', 'NONE');
#66 = PRESENTATION_STYLE_ASSIGNMENT (( #67 ) ) ;
#67 = SURFACE_STYLE_USAGE ( .BOTH. , #72 ) ;
#68 =( NAMED_UNIT ( * ) PLANE_ANGLE_UNIT ( ) SI_UNIT ( $, .RADIAN. ) );
#69 = MECHANICAL_DESIGN_GEOMETRIC_PRESENTATION_REPRESENTATION (  '', ( #74 ), #78 ) ;
#70 =( GEOMETRIC_REPRESENTATION_CONTEXT ( 3 ) GLOBAL_UNCERTAINTY_ASSIGNED_CONTEXT ( ( #65 ) ) GLOBAL_UNIT_ASSIGNED_CONTEXT ( ( #96, #5, #59 ) ) REPRESENTATION_CONTEXT ( 'NONE', 'WORKASPACE' ) );
#71 = FILL_AREA_STYLE ('',( #75 ) ) ;
#72 = SURFACE_SIDE_STYLE ('',( #62 ) ) ;
#73 =( GEOMETRIC_REPRESENTATION_CONTEXT ( 3 ) GLOBAL_UNCERTAINTY_ASSIGNED_CONTEXT ( ( #211 ) ) GLOBAL_UNIT_ASSIGNED_CONTEXT ( ( #259, #213, #212 ) ) REPRESENTATION_CONTEXT ( 'NONE', 'WORKASPACE' ) );
#74 = STYLED_ITEM ( 'NONE', ( #66 ), #61 ) ;
#75 = FILL_AREA_STYLE_COLOUR ( '', #77 ) ;
#76 = PRESENTATION_LAYER_ASSIGNMENT (  '', '', ( #74 ) ) ;
#77 = COLOUR_RGB ( '',0.7960784313725489700, 0.8235294117647058400, 0.9372549019607843100 ) ;
#78 =( GEOMETRIC_REPRESENTATION_CONTEXT ( 3 ) GLOBAL_UNCERTAINTY_ASSIGNED_CONTEXT ( ( #64 ) ) GLOBAL_UNIT_ASSIGNED_CONTEXT ( ( #63, #68, #60 ) ) REPRESENTATION_CONTEXT ( 'NONE', 'WORKASPACE' ) );
#79 = ORIENTED_EDGE ( 'NONE', *, *, #12, .F. ) ;
#80 = EDGE_CURVE ( 'NONE', #88, #19, #170, .T. ) ;
#81 = EDGE_CURVE ( 'NONE', #83, #85, #276, .T. ) ;
#82 = ORIENTED_EDGE ( 'NONE', *, *, #81, .F. ) ;
#83 = VERTEX_POINT ( 'NONE', #271 ) ;
#84 = ORIENTED_EDGE ( 'NONE', *, *, #80, .F. ) ;
#85 = VERTEX_POINT ( 'NONE', #270 ) ;
#86 = EDGE_CURVE ( 'NONE', #85, #88, #269, .T. ) ;
#87 = ORIENTED_EDGE ( 'NONE', *, *, #86, .F. ) ;
#88 = VERTEX_POINT ( 'NONE', #264 ) ;
#89 = EDGE_CURVE ( 'NONE', #6, #88, #263, .T. ) ;
#90 = CARTESIAN_POINT ( 'NONE',  ( -12.70000000000000300, 1.555250069354419500E-015, -1.616590660413759400 ) ) ;
#91 = DIRECTION ( 'NONE',  ( -0.0000000000000000000, -0.0000000000000000000, 1.000000000000000000 ) ) ;
#92 = STYLED_ITEM ( 'NONE', ( #93 ), #13 ) ;
#93 = PRESENTATION_STYLE_ASSIGNMENT (( #104 ) ) ;
#94 = LINE ( 'NONE', #95, #102 ) ;
#95 = CARTESIAN_POINT ( 'NONE',  ( 12.69999999999999900, 0.0000000000000000000, 9.126694415254821300 ) ) ;
#96 =( LENGTH_UNIT ( ) NAMED_UNIT ( * ) SI_UNIT ( .MILLI., .METRE. ) );
#97 = MECHANICAL_DESIGN_GEOMETRIC_PRESENTATION_REPRESENTATION (  '', ( #92 ), #70 ) ;
#98 = PRESENTATION_LAYER_ASSIGNMENT (  '', '', ( #92 ) ) ;
#99 = SURFACE_STYLE_FILL_AREA ( #100 ) ;
#100 = FILL_AREA_STYLE ('',( #101 ) ) ;
#101 = FILL_AREA_STYLE_COLOUR ( '', #103 ) ;
#102 = VECTOR ( 'NONE', #91, 1000.000000000000000 ) ;
#103 = COLOUR_RGB ( '',0.9568627450980391500, 0.9490196078431372100, 0.9607843137254902200 ) ;
#104 = SURFACE_STYLE_USAGE ( .BOTH. , #105 ) ;
#105 = SURFACE_SIDE_STYLE ('',( #99 ) ) ;
#106 = FACE_OUTER_BOUND ( 'NONE', #20, .T. ) ;
#107 = CARTESIAN_POINT ( 'NONE',  ( 0.0000000000000000000, 0.0000000000000000000, -64.53340933958622800 ) ) ;
#108 = AXIS2_PLACEMENT_3D ( 'NONE', #107, #4, #1 ) ;
#109 = SPHERICAL_SURFACE ( 'NONE', #108, 66.15000000000000600 ) ;
#110 = DIRECTION ( 'NONE',  ( -1.224606353822377300E-016, -1.000000000000000000, 0.0000000000000000000 ) ) ;
#111 = DIRECTION ( 'NONE',  ( -1.000000000000000000, 1.224606353822377300E-016, 0.0000000000000000000 ) ) ;
#112 = CARTESIAN_POINT ( 'NONE',  ( 0.0000000000000000000, 0.0000000000000000000, -64.53340933958622800 ) ) ;
#113 = AXIS2_PLACEMENT_3D ( 'NONE', #112, #111, #110 ) ;
#114 = CIRCLE ( 'NONE', #113, 66.15000000000000600 ) ;
#115 = CARTESIAN_POINT ( 'NONE',  ( 0.0000000000000000000, 0.0000000000000000000, 9.126694415254821300 ) ) ;
#116 = AXIS2_PLACEMENT_3D ( 'NONE', #115, #123, #122 ) ;
#117 = CYLINDRICAL_SURFACE ( 'NONE', #116, 12.69999999999999900 ) ;
#118 =( GEOMETRIC_REPRESENTATION_CONTEXT ( 3 ) GLOBAL_UNCERTAINTY_ASSIGNED_CONTEXT ( ( #206 ) ) GLOBAL_UNIT_ASSIGNED_CONTEXT ( ( #160, #208, #207 ) ) REPRESENTATION_CONTEXT ( 'NONE', 'WORKASPACE' ) );
#119 = CARTESIAN_POINT ( 'NONE',  ( 0.0000000000000000000, 0.0000000000000000000, 0.3860214958731847900 ) ) ;
#120 = AXIS2_PLACEMENT_3D ( 'NONE', #119, #157, #156 ) ;
#121 = CARTESIAN_POINT ( 'NONE',  ( 0.0000000000000000000, 0.0000000000000000000, -1.616590660413759400 ) ) ;
#122 = DIRECTION ( 'NONE',  ( 1.000000000000000000, 0.0000000000000000000, 0.0000000000000000000 ) ) ;
#123 = DIRECTION ( 'NONE',  ( -0.0000000000000000000, -0.0000000000000000000, 1.000000000000000000 ) ) ;
#124 = CIRCLE ( 'NONE', #120, 12.69999999999999900 ) ;
#125 = CIRCLE ( 'NONE', #199, 12.70000000000000100 ) ;
#126 =( NAMED_UNIT ( * ) SI_UNIT ( $, .STERADIAN. ) SOLID_ANGLE_UNIT ( ) );
#127 =( NAMED_UNIT ( * ) PLANE_ANGLE_UNIT ( ) SI_UNIT ( $, .RADIAN. ) );
#128 = SURFACE_STYLE_FILL_AREA ( #129 ) ;
#129 = FILL_AREA_STYLE ('',( #130 ) ) ;
#130 = FILL_AREA_STYLE_COLOUR ( '', #131 ) ;
#131 = COLOUR_RGB ( '',0.9568627450980391500, 0.9490196078431372100, 0.9607843137254902200 ) ;
#132 = DIRECTION ( 'NONE',  ( 1.000000000000000000, 0.0000000000000000000, 0.0000000000000000000 ) ) ;
#133 =( LENGTH_UNIT ( ) NAMED_UNIT ( * ) SI_UNIT ( .MILLI., .METRE. ) );
#134 = AXIS2_PLACEMENT_3D ( 'NONE', #236, #235, #234 ) ;
#135 = CYLINDRICAL_SURFACE ( 'NONE', #134, 12.69999999999999900 ) ;
#136 =( GEOMETRIC_REPRESENTATION_CONTEXT ( 3 ) GLOBAL_UNCERTAINTY_ASSIGNED_CONTEXT ( ( #137 ) ) GLOBAL_UNIT_ASSIGNED_CONTEXT ( ( #140, #139, #138 ) ) REPRESENTATION_CONTEXT ( 'NONE', 'WORKASPACE' ) );
#137 = UNCERTAINTY_MEASURE_WITH_UNIT (LENGTH_MEASURE( 1.000000000000000100E-005 ), #140, 'distance_accuracy_value', 'NONE');
#138 =( NAMED_UNIT ( * ) SI_UNIT ( $, .STERADIAN. ) SOLID_ANGLE_UNIT ( ) );
#139 =( NAMED_UNIT ( * ) PLANE_ANGLE_UNIT ( ) SI_UNIT ( $, .RADIAN. ) );
#140 =( LENGTH_UNIT ( ) NAMED_UNIT ( * ) SI_UNIT ( .MILLI., .METRE. ) );
#141 = MECHANICAL_DESIGN_GEOMETRIC_PRESENTATION_REPRESENTATION (  '', ( #143 ), #136 ) ;
#142 = PRESENTATION_LAYER_ASSIGNMENT (  '', '', ( #143 ) ) ;
#143 = STYLED_ITEM ( 'NONE', ( #144 ), #43 ) ;
#144 = PRESENTATION_STYLE_ASSIGNMENT (( #145 ) ) ;
#145 = SURFACE_STYLE_USAGE ( .BOTH. , #146 ) ;
#146 = SURFACE_SIDE_STYLE ('',( #147 ) ) ;
#147 = SURFACE_STYLE_FILL_AREA ( #148 ) ;
#148 = FILL_AREA_STYLE ('',( #155 ) ) ;
#149 = COLOUR_RGB ( '',0.9568627450980391500, 0.9490196078431372100, 0.9607843137254902200 ) ;
#150 = FACE_OUTER_BOUND ( 'NONE', #2, .T. ) ;
#151 = DIRECTION ( 'NONE',  ( 1.000000000000000000, 0.0000000000000000000, 0.0000000000000000000 ) ) ;
#152 = DIRECTION ( 'NONE',  ( -0.0000000000000000000, -0.0000000000000000000, 1.000000000000000000 ) ) ;
#153 = AXIS2_PLACEMENT_3D ( 'NONE', #121, #152, #151 ) ;
#154 = CIRCLE ( 'NONE', #153, 12.70000000000000100 ) ;
#155 = FILL_AREA_STYLE_COLOUR ( '', #149 ) ;
#156 = DIRECTION ( 'NONE',  ( 1.000000000000000000, 0.0000000000000000000, 0.0000000000000000000 ) ) ;
#157 = DIRECTION ( 'NONE',  ( -0.0000000000000000000, -0.0000000000000000000, 1.000000000000000000 ) ) ;
#158 =( NAMED_UNIT ( * ) SI_UNIT ( $, .STERADIAN. ) SOLID_ANGLE_UNIT ( ) );
#159 =( NAMED_UNIT ( * ) PLANE_ANGLE_UNIT ( ) SI_UNIT ( $, .RADIAN. ) );
#160 =( LENGTH_UNIT ( ) NAMED_UNIT ( * ) SI_UNIT ( .MILLI., .METRE. ) );
#161 = MECHANICAL_DESIGN_GEOMETRIC_PRESENTATION_REPRESENTATION (  '', ( #163 ), #118 ) ;
#162 = PRESENTATION_LAYER_ASSIGNMENT (  '', '', ( #163 ) ) ;
#163 = STYLED_ITEM ( 'NONE', ( #164 ), #37 ) ;
#164 = PRESENTATION_STYLE_ASSIGNMENT (( #165 ) ) ;
#165 = SURFACE_STYLE_USAGE ( .BOTH. , #240 ) ;
#166 = DIRECTION ( 'NONE',  ( 1.000000000000000000, 0.0000000000000000000, 0.0000000000000000000 ) ) ;
#167 = DIRECTION ( 'NONE',  ( -0.0000000000000000000, -0.0000000000000000000, 1.000000000000000000 ) ) ;
#168 = CARTESIAN_POINT ( 'NONE',  ( 0.0000000000000000000, 0.0000000000000000000, 0.3860214958731847900 ) ) ;
#169 = AXIS2_PLACEMENT_3D ( 'NONE', #168, #167, #166 ) ;
#170 = CIRCLE ( 'NONE', #169, 12.69999999999999900 ) ;
#171 = DIRECTION ( 'NONE',  ( -1.224606353822377300E-016, -1.000000000000000000, 0.0000000000000000000 ) ) ;
#172 = DIRECTION ( 'NONE',  ( -1.000000000000000000, 1.224606353822377300E-016, 0.0000000000000000000 ) ) ;
#173 = CARTESIAN_POINT ( 'NONE',  ( 0.0000000000000000000, 0.0000000000000000000, -183.3634093395862100 ) ) ;
#174 = AXIS2_PLACEMENT_3D ( 'NONE', #173, #172, #171 ) ;
#175 = DIRECTION ( 'NONE',  ( 0.0000000000000000000, 1.000000000000000000, 0.0000000000000000000 ) ) ;
#176 = DIRECTION ( 'NONE',  ( -1.000000000000000000, 0.0000000000000000000, 0.0000000000000000000 ) ) ;
#177 = CARTESIAN_POINT ( 'NONE',  ( 0.0000000000000000000, 0.0000000000000000000, -183.3634093395862100 ) ) ;
#178 = AXIS2_PLACEMENT_3D ( 'NONE', #177, #176, #175 ) ;
#179 = CIRCLE ( 'NONE', #174, 182.1900000000000000 ) ;
#180 = SPHERICAL_SURFACE ( 'NONE', #178, 182.1900000000000000 ) ;
#181 =( GEOMETRIC_REPRESENTATION_CONTEXT ( 3 ) GLOBAL_UNCERTAINTY_ASSIGNED_CONTEXT ( ( #277 ) ) GLOBAL_UNIT_ASSIGNED_CONTEXT ( ( #280, #279, #278 ) ) REPRESENTATION_CONTEXT ( 'NONE', 'WORKASPACE' ) );
#182 = CARTESIAN_POINT ( 'NONE',  ( 0.0000000000000000000, 0.0000000000000000000, -64.53340933958622800 ) ) ;
#183 = AXIS2_PLACEMENT_3D ( 'NONE', #182, #306, #305 ) ;
#184 = SPHERICAL_SURFACE ( 'NONE', #185, 182.1900000000000000 ) ;
#185 = AXIS2_PLACEMENT_3D ( 'NONE', #246, #245, #244 ) ;
#186 =( GEOMETRIC_REPRESENTATION_CONTEXT ( 3 ) GLOBAL_UNCERTAINTY_ASSIGNED_CONTEXT ( ( #202 ) ) GLOBAL_UNIT_ASSIGNED_CONTEXT ( ( #209, #159, #158 ) ) REPRESENTATION_CONTEXT ( 'NONE', 'WORKASPACE' ) );
#187 = MECHANICAL_DESIGN_GEOMETRIC_PRESENTATION_REPRESENTATION (  '', ( #189 ), #205 ) ;
#188 = PRESENTATION_LAYER_ASSIGNMENT (  '', '', ( #189 ) ) ;
#189 = STYLED_ITEM ( 'NONE', ( #190 ), #32 ) ;
#190 = PRESENTATION_STYLE_ASSIGNMENT (( #191 ) ) ;
#191 = SURFACE_STYLE_USAGE ( .BOTH. , #192 ) ;
#192 = SURFACE_SIDE_STYLE ('',( #128 ) ) ;
#193 = CARTESIAN_POINT ( 'NONE',  ( 0.0000000000000000000, 0.0000000000000000000, -64.53340933958622800 ) ) ;
#194 = AXIS2_PLACEMENT_3D ( 'NONE', #193, #258, #257 ) ;
#195 = FACE_OUTER_BOUND ( 'NONE', #27, .T. ) ;
#196 = FILL_AREA_STYLE_COLOUR ( '', #256 ) ;
#197 = DIRECTION ( 'NONE',  ( -0.0000000000000000000, -0.0000000000000000000, 1.000000000000000000 ) ) ;
#198 = CARTESIAN_POINT ( 'NONE',  ( 0.0000000000000000000, 0.0000000000000000000, -1.616590660413759400 ) ) ;
#199 = AXIS2_PLACEMENT_3D ( 'NONE', #198, #197, #132 ) ;
#200 = FACE_OUTER_BOUND ( 'NONE', #35, .T. ) ;
#201 = UNCERTAINTY_MEASURE_WITH_UNIT (LENGTH_MEASURE( 1.000000000000000100E-005 ), #133, 'distance_accuracy_value', 'NONE');
#202 = UNCERTAINTY_MEASURE_WITH_UNIT (LENGTH_MEASURE( 1.000000000000000100E-005 ), #209, 'distance_accuracy_value', 'NONE');
#203 = CIRCLE ( 'NONE', #183, 66.14999999999999100 ) ;
#204 = SPHERICAL_SURFACE ( 'NONE', #194, 66.15000000000000600 ) ;
#205 =( GEOMETRIC_REPRESENTATION_CONTEXT ( 3 ) GLOBAL_UNCERTAINTY_ASSIGNED_CONTEXT ( ( #201 ) ) GLOBAL_UNIT_ASSIGNED_CONTEXT ( ( #133, #127, #126 ) ) REPRESENTATION_CONTEXT ( 'NONE', 'WORKASPACE' ) );
#206 = UNCERTAINTY_MEASURE_WITH_UNIT (LENGTH_MEASURE( 1.000000000000000100E-005 ), #160, 'distance_accuracy_value', 'NONE');
#207 =( NAMED_UNIT ( * ) SI_UNIT ( $, .STERADIAN. ) SOLID_ANGLE_UNIT ( ) );
#208 =( NAMED_UNIT ( * ) PLANE_ANGLE_UNIT ( ) SI_UNIT ( $, .RADIAN. ) );
#209 =( LENGTH_UNIT ( ) NAMED_UNIT ( * ) SI_UNIT ( .MILLI., .METRE. ) );
#210 = MECHANICAL_DESIGN_GEOMETRIC_PRESENTATION_REPRESENTATION (  '', ( #250 ), #186 ) ;
#211 = UNCERTAINTY_MEASURE_WITH_UNIT (LENGTH_MEASURE( 1.000000000000000100E-005 ), #259, 'distance_accuracy_value', 'NONE');
#212 =( NAMED_UNIT ( * ) SI_UNIT ( $, .STERADIAN. ) SOLID_ANGLE_UNIT ( ) );
#213 =( NAMED_UNIT ( * ) PLANE_ANGLE_UNIT ( ) SI_UNIT ( $, .RADIAN. ) );
#214 = CARTESIAN_POINT ( 'NONE',  ( 0.0000000000000000000, 0.0000000000000000000, -183.3634093395862100 ) ) ;
#215 = CARTESIAN_POINT ( 'NONE',  ( 0.0000000000000000000, 1.115555158014494500E-014, -1.173409339586234400 ) ) ;
#216 = DIRECTION ( 'NONE',  ( 1.000000000000000000, 0.0000000000000000000, 0.0000000000000000000 ) ) ;
#217 = DIRECTION ( 'NONE',  ( -0.0000000000000000000, -0.0000000000000000000, 1.000000000000000000 ) ) ;
#218 = CARTESIAN_POINT ( 'NONE',  ( 0.0000000000000000000, 0.0000000000000000000, -1.616590660413759400 ) ) ;
#219 = AXIS2_PLACEMENT_3D ( 'NONE', #218, #217, #216 ) ;
#220 = CIRCLE ( 'NONE', #219, 12.70000000000000100 ) ;
#221 =( GEOMETRIC_REPRESENTATION_CONTEXT ( 3 ) GLOBAL_UNCERTAINTY_ASSIGNED_CONTEXT ( ( #222 ) ) GLOBAL_UNIT_ASSIGNED_CONTEXT ( ( #225, #224, #223 ) ) REPRESENTATION_CONTEXT ( 'NONE', 'WORKASPACE' ) );
#222 = UNCERTAINTY_MEASURE_WITH_UNIT (LENGTH_MEASURE( 1.000000000000000100E-005 ), #225, 'distance_accuracy_value', 'NONE');
#223 =( NAMED_UNIT ( * ) SI_UNIT ( $, .STERADIAN. ) SOLID_ANGLE_UNIT ( ) );
#224 =( NAMED_UNIT ( * ) PLANE_ANGLE_UNIT ( ) SI_UNIT ( $, .RADIAN. ) );
#225 =( LENGTH_UNIT ( ) NAMED_UNIT ( * ) SI_UNIT ( .MILLI., .METRE. ) );
#226 = MECHANICAL_DESIGN_GEOMETRIC_PRESENTATION_REPRESENTATION (  '', ( #228 ), #221 ) ;
#227 = PRESENTATION_LAYER_ASSIGNMENT (  '', '', ( #228 ) ) ;
#228 = STYLED_ITEM ( 'NONE', ( #229 ), #44 ) ;
#229 = PRESENTATION_STYLE_ASSIGNMENT (( #230 ) ) ;
#230 = SURFACE_STYLE_USAGE ( .BOTH. , #231 ) ;
#231 = SURFACE_SIDE_STYLE ('',( #232 ) ) ;
#232 = SURFACE_STYLE_FILL_AREA ( #233 ) ;
#233 = FILL_AREA_STYLE ('',( #238 ) ) ;
#234 = DIRECTION ( 'NONE',  ( 1.000000000000000000, 0.0000000000000000000, 0.0000000000000000000 ) ) ;
#235 = DIRECTION ( 'NONE',  ( -0.0000000000000000000, -0.0000000000000000000, 1.000000000000000000 ) ) ;
#236 = CARTESIAN_POINT ( 'NONE',  ( 0.0000000000000000000, 0.0000000000000000000, 9.126694415254821300 ) ) ;
#237 = COLOUR_RGB ( '',0.7960784313725489700, 0.8235294117647058400, 0.9372549019607843100 ) ;
#238 = FILL_AREA_STYLE_COLOUR ( '', #237 ) ;
#239 = FILL_AREA_STYLE_COLOUR ( '', #243 ) ;
#240 = SURFACE_SIDE_STYLE ('',( #241 ) ) ;
#241 = SURFACE_STYLE_FILL_AREA ( #242 ) ;
#242 = FILL_AREA_STYLE ('',( #239 ) ) ;
#243 = COLOUR_RGB ( '',0.9568627450980391500, 0.9490196078431372100, 0.9607843137254902200 ) ;
#244 = DIRECTION ( 'NONE',  ( 0.0000000000000000000, 1.000000000000000000, 0.0000000000000000000 ) ) ;
#245 = DIRECTION ( 'NONE',  ( -1.000000000000000000, 0.0000000000000000000, 0.0000000000000000000 ) ) ;
#246 = CARTESIAN_POINT ( 'NONE',  ( 0.0000000000000000000, 0.0000000000000000000, -183.3634093395862100 ) ) ;
#247 = FACE_OUTER_BOUND ( 'NONE', #31, .T. ) ;
#248 = CARTESIAN_POINT ( 'NONE',  ( 0.0000000000000000000, 4.050385515267512900E-015, 1.616590660413766300 ) ) ;
#249 = PRESENTATION_LAYER_ASSIGNMENT (  '', '', ( #250 ) ) ;
#250 = STYLED_ITEM ( 'NONE', ( #251 ), #33 ) ;
#251 = PRESENTATION_STYLE_ASSIGNMENT (( #252 ) ) ;
#252 = SURFACE_STYLE_USAGE ( .BOTH. , #253 ) ;
#253 = SURFACE_SIDE_STYLE ('',( #254 ) ) ;
#254 = SURFACE_STYLE_FILL_AREA ( #255 ) ;
#255 = FILL_AREA_STYLE ('',( #196 ) ) ;
#256 = COLOUR_RGB ( '',0.9568627450980391500, 0.9490196078431372100, 0.9607843137254902200 ) ;
#257 = DIRECTION ( 'NONE',  ( 0.0000000000000000000, 1.000000000000000000, 0.0000000000000000000 ) ) ;
#258 = DIRECTION ( 'NONE',  ( -1.000000000000000000, 0.0000000000000000000, 0.0000000000000000000 ) ) ;
#259 =( LENGTH_UNIT ( ) NAMED_UNIT ( * ) SI_UNIT ( .MILLI., .METRE. ) );
#260 = DIRECTION ( 'NONE',  ( -0.0000000000000000000, -0.0000000000000000000, 1.000000000000000000 ) ) ;
#261 = VECTOR ( 'NONE', #260, 1000.000000000000000 ) ;
#262 = CARTESIAN_POINT ( 'NONE',  ( -12.69999999999999900, 1.555250069354419100E-015, 9.126694415254821300 ) ) ;
#263 = LINE ( 'NONE', #262, #261 ) ;
#264 = CARTESIAN_POINT ( 'NONE',  ( -12.69999999999999900, 1.555250069354419100E-015, 0.3860214958731847900 ) ) ;
#265 = DIRECTION ( 'NONE',  ( 1.000000000000000000, 0.0000000000000000000, 0.0000000000000000000 ) ) ;
#266 = DIRECTION ( 'NONE',  ( -0.0000000000000000000, -0.0000000000000000000, 1.000000000000000000 ) ) ;
#267 = CARTESIAN_POINT ( 'NONE',  ( 0.0000000000000000000, 0.0000000000000000000, 0.3860214958731847900 ) ) ;
#268 = AXIS2_PLACEMENT_3D ( 'NONE', #267, #266, #265 ) ;
#269 = CIRCLE ( 'NONE', #268, 12.69999999999999900 ) ;
#270 = CARTESIAN_POINT ( 'NONE',  ( 0.0000000000000000000, 12.70000000000001000, 0.3860214958731804600 ) ) ;
#271 = CARTESIAN_POINT ( 'NONE',  ( 12.69999999999999900, 0.0000000000000000000, 0.3860214958731847900 ) ) ;
#272 = DIRECTION ( 'NONE',  ( 1.000000000000000000, 0.0000000000000000000, 0.0000000000000000000 ) ) ;
#273 = DIRECTION ( 'NONE',  ( -0.0000000000000000000, -0.0000000000000000000, 1.000000000000000000 ) ) ;
#274 = CARTESIAN_POINT ( 'NONE',  ( 0.0000000000000000000, 0.0000000000000000000, 0.3860214958731847900 ) ) ;
#275 = AXIS2_PLACEMENT_3D ( 'NONE', #274, #273, #272 ) ;
#276 = CIRCLE ( 'NONE', #275, 12.69999999999999900 ) ;
#277 = UNCERTAINTY_MEASURE_WITH_UNIT (LENGTH_MEASURE( 1.000000000000000100E-005 ), #280, 'distance_accuracy_value', 'NONE');
#278 =( NAMED_UNIT ( * ) SI_UNIT ( $, .STERADIAN. ) SOLID_ANGLE_UNIT ( ) );
#279 =( NAMED_UNIT ( * ) PLANE_ANGLE_UNIT ( ) SI_UNIT ( $, .RADIAN. ) );
#280 =( LENGTH_UNIT ( ) NAMED_UNIT ( * ) SI_UNIT ( .MILLI., .METRE. ) );
#281 = MECHANICAL_DESIGN_GEOMETRIC_PRESENTATION_REPRESENTATION (  '', ( #283 ), #181 ) ;
#282 = PRESENTATION_LAYER_ASSIGNMENT (  '', '', ( #283 ) ) ;
#283 = STYLED_ITEM ( 'NONE', ( #284 ), #57 ) ;
#284 = PRESENTATION_STYLE_ASSIGNMENT (( #285 ) ) ;
#285 = SURFACE_STYLE_USAGE ( .BOTH. , #286 ) ;
#286 = SURFACE_SIDE_STYLE ('',( #287 ) ) ;
#287 = SURFACE_STYLE_FILL_AREA ( #288 ) ;
#288 = FILL_AREA_STYLE ('',( #289 ) ) ;
#289 = FILL_AREA_STYLE_COLOUR ( '', #290 ) ;
#290 = COLOUR_RGB ( '',0.9568627450980391500, 0.9490196078431372100, 0.9607843137254902200 ) ;
#291 = FACE_OUTER_BOUND ( 'NONE', #53, .T. ) ;
#292 = CARTESIAN_POINT ( 'NONE',  ( 0.0000000000000000000, 12.70000000000002800, -1.616590660413742100 ) ) ;
#293 = DIRECTION ( 'NONE',  ( 1.000000000000000000, 0.0000000000000000000, 0.0000000000000000000 ) ) ;
#294 = DIRECTION ( 'NONE',  ( -0.0000000000000000000, -0.0000000000000000000, 1.000000000000000000 ) ) ;
#295 = CARTESIAN_POINT ( 'NONE',  ( 0.0000000000000000000, 0.0000000000000000000, -1.616590660413759400 ) ) ;
#296 = AXIS2_PLACEMENT_3D ( 'NONE', #295, #294, #293 ) ;
#297 = CIRCLE ( 'NONE', #296, 12.70000000000000100 ) ;
#298 = CARTESIAN_POINT ( 'NONE',  ( 12.70000000000000100, 0.0000000000000000000, -1.616590660413759400 ) ) ;
#299 = CARTESIAN_POINT ( 'NONE',  ( -1.555250069354422800E-015, -12.70000000000002800, -1.616590660413742100 ) ) ;
#300 = DIRECTION ( 'NONE',  ( 0.0000000000000000000, 0.0000000000000000000, -1.000000000000000000 ) ) ;
#301 = DIRECTION ( 'NONE',  ( 1.000000000000000000, -0.0000000000000000000, 0.0000000000000000000 ) ) ;
#302 = AXIS2_PLACEMENT_3D ( 'NONE', #214, #301, #300 ) ;
#303 = CIRCLE ( 'NONE', #302, 182.1900000000000300 ) ;
#304 = CARTESIAN_POINT ( 'NONE',  ( -1.555250069354420500E-015, -12.70000000000001000, 0.3860214958731804600 ) ) ;
#305 = DIRECTION ( 'NONE',  ( 0.0000000000000000000, 0.0000000000000000000, -1.000000000000000000 ) ) ;
#306 = DIRECTION ( 'NONE',  ( 1.000000000000000000, 0.0000000000000000000, 0.0000000000000000000 ) ) ;
#307 = APPLICATION_CONTEXT ( 'automotive_design' ) ;
#308 = DIRECTION ( 'NONE',  ( 1.000000000000000000, 0.0000000000000000000, 0.0000000000000000000 ) ) ;
#309 = DIRECTION ( 'NONE',  ( 0.0000000000000000000, 0.0000000000000000000, 1.000000000000000000 ) ) ;
#310 = CARTESIAN_POINT ( 'NONE',  ( 0.0000000000000000000, 0.0000000000000000000, 0.0000000000000000000 ) ) ;
#311 = PRODUCT_DEFINITION_SHAPE ( 'NONE', 'NONE',  #314 ) ;
#312 = PRODUCT_RELATED_PRODUCT_CATEGORY ( 'part', '', ( #319 ) ) ;
#313 = PRODUCT_DEFINITION_FORMATION_WITH_SPECIFIED_SOURCE ( 'ANY', '', #319, .NOT_KNOWN. ) ;
#314 = PRODUCT_DEFINITION ( 'UNKNOWN', '', #313, #316 ) ;
#315 = SHAPE_DEFINITION_REPRESENTATION ( #311, #61 ) ;
#316 = PRODUCT_DEFINITION_CONTEXT ( 'detailed design', #318, 'design' ) ;
#317 = APPLICATION_PROTOCOL_DEFINITION ( 'draft international standard', 'automotive_design', 1998, #318 ) ;
#318 = APPLICATION_CONTEXT ( 'automotive_design' ) ;
#319 = PRODUCT ( '4817-E0W', '4817-E0W', '', ( #320 ) ) ;
#320 = PRODUCT_CONTEXT ( 'NONE', #307, 'mechanical' ) ;
#321 = APPLICATION_PROTOCOL_DEFINITION ( 'draft international standard', 'automotive_design', 1998, #307 ) ;
#322 = AXIS2_PLACEMENT_3D ( 'NONE', #310, #309, #308 ) ;
ENDSEC;
END-ISO-10303-21;
