ISO-10303-21;
HEADER;
FILE_DESCRIPTION (( 'STEP AP203' ),
    '1' );
FILE_NAME ('Web Model 46097_48923.step',
    '2017-03-01T20:50:36',
    ( '' ),
    ( '' ),
    'SwSTEP 2.0',
    'SolidWorks 2016',
    '' );
FILE_SCHEMA (( 'CONFIG_CONTROL_DESIGN' ));
ENDSEC;

DATA;
#1 = DIRECTION ( 'NONE',  ( 1.000000000000000000, 0.0000000000000000000, 0.0000000000000000000 ) ) ;
#2 = ORIENTED_EDGE ( 'NONE', *, *, #47, .F. ) ;
#3 = AXIS2_PLACEMENT_3D ( 'NONE', #235, #68, #200 ) ;
#4 = ORIENTED_EDGE ( 'NONE', *, *, #160, .F. ) ;
#5 = PERSON_AND_ORGANIZATION ( #96, #54 ) ;
#6 = CC_DESIGN_PERSON_AND_ORGANIZATION_ASSIGNMENT ( #5, #233, ( #190 ) ) ;
#7 = DESIGN_CONTEXT ( 'detailed design', #144, 'design' ) ;
#8 = DATE_AND_TIME ( #53, #104 ) ;
#9 = FACE_OUTER_BOUND ( 'NONE', #234, .T. ) ;
#10 = LOCAL_TIME ( 15, 50, 36.00000000000000000, #55 ) ;
#11 = CARTESIAN_POINT ( 'NONE',  ( 12.70000000000001700, 12.69999999999997400, 0.0000000000000000000 ) ) ;
#12 =( GEOMETRIC_REPRESENTATION_CONTEXT ( 3 ) GLOBAL_UNCERTAINTY_ASSIGNED_CONTEXT ( ( #60 ) ) GLOBAL_UNIT_ASSIGNED_CONTEXT ( ( #35, #163, #50 ) ) REPRESENTATION_CONTEXT ( 'NONE', 'WORKASPACE' ) );
#13 = PERSON_AND_ORGANIZATION ( #96, #54 ) ;
#14 = CARTESIAN_POINT ( 'NONE',  ( 12.70000000000001700, 12.69999999999997400, 1.000000000000000000 ) ) ;
#15 = PERSON_AND_ORGANIZATION_ROLE ( 'classification_officer' ) ;
#16 = CARTESIAN_POINT ( 'NONE',  ( -12.69999999999998900, 12.69999999999998900, 1.000000000000000000 ) ) ;
#17 = CALENDAR_DATE ( 2017, 1, 3 ) ;
#18 = SECURITY_CLASSIFICATION ( '', '', #123 ) ;
#19 = PERSON_AND_ORGANIZATION_ROLE ( 'design_owner' ) ;
#20 = VECTOR ( 'NONE', #175, 1000.000000000000000 ) ;
#21 = DATE_AND_TIME ( #65, #117 ) ;
#22 = ORIENTED_EDGE ( 'NONE', *, *, #77, .F. ) ;
#23 = LINE ( 'NONE', #14, #223 ) ;
#24 = AXIS2_PLACEMENT_3D ( 'NONE', #218, #177, #129 ) ;
#25 = PERSON_AND_ORGANIZATION ( #96, #54 ) ;
#26 = ORIENTED_EDGE ( 'NONE', *, *, #146, .T. ) ;
#27 = CC_DESIGN_PERSON_AND_ORGANIZATION_ASSIGNMENT ( #189, #15, ( #18 ) ) ;
#28 = PLANE ( 'NONE',  #225 ) ;
#29 = VECTOR ( 'NONE', #173, 1000.000000000000000 ) ;
#30 = ORIENTED_EDGE ( 'NONE', *, *, #56, .F. ) ;
#31 = CARTESIAN_POINT ( 'NONE',  ( -12.69999999999998900, 12.69999999999998900, 0.0000000000000000000 ) ) ;
#32 = APPROVAL_STATUS ( 'not_yet_approved' ) ;
#33 = ORIENTED_EDGE ( 'NONE', *, *, #125, .T. ) ;
#34 = PLANE ( 'NONE',  #3 ) ;
#35 =( LENGTH_UNIT ( ) NAMED_UNIT ( * ) SI_UNIT ( .MILLI., .METRE. ) );
#36 = APPLICATION_PROTOCOL_DEFINITION ( 'international standard', 'config_control_design', 1994, #144 ) ;
#37 = FACE_OUTER_BOUND ( 'NONE', #141, .T. ) ;
#38 = ORIENTED_EDGE ( 'NONE', *, *, #186, .T. ) ;
#39 = CC_DESIGN_DATE_AND_TIME_ASSIGNMENT ( #236, #140, ( #18 ) ) ;
#40 = LINE ( 'NONE', #44, #231 ) ;
#41 = EDGE_LOOP ( 'NONE', ( #2, #217, #79, #22 ) ) ;
#42 = CALENDAR_DATE ( 2017, 1, 3 ) ;
#43 = CARTESIAN_POINT ( 'NONE',  ( 12.70000000000001700, 12.69999999999997400, 1.000000000000000000 ) ) ;
#44 = CARTESIAN_POINT ( 'NONE',  ( -12.69999999999998900, 12.69999999999998900, 0.0000000000000000000 ) ) ;
#45 = VERTEX_POINT ( 'NONE', #139 ) ;
#46 = CARTESIAN_POINT ( 'NONE',  ( -12.69999999999998900, 12.69999999999998900, 1.000000000000000000 ) ) ;
#47 = EDGE_CURVE ( 'NONE', #193, #45, #40, .T. ) ;
#48 = DIRECTION ( 'NONE',  ( 0.0000000000000000000, -1.000000000000000000, 0.0000000000000000000 ) ) ;
#49 = PERSON_AND_ORGANIZATION ( #96, #54 ) ;
#50 =( NAMED_UNIT ( * ) SI_UNIT ( $, .STERADIAN. ) SOLID_ANGLE_UNIT ( ) );
#51 = APPROVAL ( #32, 'UNSPECIFIED' ) ;
#52 = APPROVAL_ROLE ( '' ) ;
#53 = CALENDAR_DATE ( 2017, 1, 3 ) ;
#54 = ORGANIZATION ( 'UNSPECIFIED', 'UNSPECIFIED', '' ) ;
#55 = COORDINATED_UNIVERSAL_TIME_OFFSET ( 5, 0, .BEHIND. ) ;
#56 = EDGE_CURVE ( 'NONE', #118, #45, #137, .T. ) ;
#57 = LOCAL_TIME ( 15, 50, 36.00000000000000000, #114 ) ;
#58 = ADVANCED_FACE ( 'NONE', ( #95 ), #205, .T. ) ;
#59 = CC_DESIGN_APPROVAL ( #51, ( #18 ) ) ;
#60 = UNCERTAINTY_MEASURE_WITH_UNIT (LENGTH_MEASURE( 1.000000000000000100E-005 ), #35, 'distance_accuracy_value', 'NONE');
#61 = DIRECTION ( 'NONE',  ( -1.000000000000000000, 0.0000000000000000000, 0.0000000000000000000 ) ) ;
#62 = DIRECTION ( 'NONE',  ( -0.0000000000000000000, 0.0000000000000000000, 1.000000000000000000 ) ) ;
#63 = FACE_OUTER_BOUND ( 'NONE', #41, .T. ) ;
#64 = CARTESIAN_POINT ( 'NONE',  ( -12.69999999999998900, -12.70000000000001700, 1.000000000000000000 ) ) ;
#65 = CALENDAR_DATE ( 2017, 1, 3 ) ;
#66 = CARTESIAN_POINT ( 'NONE',  ( 12.70000000000001700, -12.69999999999997400, 1.000000000000000000 ) ) ;
#67 = VERTEX_POINT ( 'NONE', #66 ) ;
#68 = DIRECTION ( 'NONE',  ( -1.639108796198557500E-015, 1.000000000000000000, 0.0000000000000000000 ) ) ;
#69 = ORIENTED_EDGE ( 'NONE', *, *, #101, .F. ) ;
#70 = APPLICATION_PROTOCOL_DEFINITION ( 'international standard', 'config_control_design', 1994, #92 ) ;
#71 = DATE_TIME_ROLE ( 'creation_date' ) ;
#72 = VECTOR ( 'NONE', #192, 1000.000000000000000 ) ;
#73 = PRODUCT ( 'Web Model 46097_48923', 'Web Model 46097_48923', '', ( #130 ) ) ;
#74 = AXIS2_PLACEMENT_3D ( 'NONE', #220, #110, #1 ) ;
#75 = PERSON_AND_ORGANIZATION ( #96, #54 ) ;
#76 = CARTESIAN_POINT ( 'NONE',  ( 0.0000000000000000000, 0.0000000000000000000, 1.000000000000000000 ) ) ;
#77 = EDGE_CURVE ( 'NONE', #45, #83, #180, .T. ) ;
#78 = CARTESIAN_POINT ( 'NONE',  ( -12.69999999999998900, -12.70000000000001700, 0.0000000000000000000 ) ) ;
#79 = ORIENTED_EDGE ( 'NONE', *, *, #115, .F. ) ;
#80 = CC_DESIGN_SECURITY_CLASSIFICATION ( #18, ( #190 ) ) ;
#81 = LINE ( 'NONE', #138, #131 ) ;
#82 = ADVANCED_FACE ( 'NONE', ( #37 ), #28, .F. ) ;
#83 = VERTEX_POINT ( 'NONE', #119 ) ;
#84 = LINE ( 'NONE', #31, #20 ) ;
#85 = CARTESIAN_POINT ( 'NONE',  ( 12.70000000000001700, -12.69999999999997400, 1.000000000000000000 ) ) ;
#86 = ORIENTED_EDGE ( 'NONE', *, *, #47, .T. ) ;
#87 = CC_DESIGN_PERSON_AND_ORGANIZATION_ASSIGNMENT ( #75, #19, ( #73 ) ) ;
#88 = DIRECTION ( 'NONE',  ( -0.0000000000000000000, 0.0000000000000000000, 1.000000000000000000 ) ) ;
#89 = EDGE_CURVE ( 'NONE', #67, #83, #227, .T. ) ;
#90 = VERTEX_POINT ( 'NONE', #121 ) ;
#91 = DIRECTION ( 'NONE',  ( 1.000000000000000000, -5.463695987328524500E-016, 0.0000000000000000000 ) ) ;
#92 = APPLICATION_CONTEXT ( 'configuration controlled 3d designs of mechanical parts and assemblies' ) ;
#93 = PRODUCT_RELATED_PRODUCT_CATEGORY ( 'detail', '', ( #73 ) ) ;
#94 = APPROVAL_ROLE ( '' ) ;
#95 = FACE_OUTER_BOUND ( 'NONE', #176, .T. ) ;
#96 = PERSON ( 'UNSPECIFIED', 'UNSPECIFIED', 'UNSPECIFIED', ('UNSPECIFIED'), ('UNSPECIFIED'), ('UNSPECIFIED') ) ;
#97 = ORIENTED_EDGE ( 'NONE', *, *, #77, .T. ) ;
#98 = LOCAL_TIME ( 15, 50, 36.00000000000000000, #143 ) ;
#99 = PRODUCT_DEFINITION ( 'UNKNOWN', '', #190, #7 ) ;
#100 = ORIENTED_EDGE ( 'NONE', *, *, #56, .T. ) ;
#101 = EDGE_CURVE ( 'NONE', #118, #67, #81, .T. ) ;
#102 = APPROVAL_DATE_TIME ( #147, #207 ) ;
#103 = VERTEX_POINT ( 'NONE', #210 ) ;
#104 = LOCAL_TIME ( 15, 50, 36.00000000000000000, #148 ) ;
#105 = DIRECTION ( 'NONE',  ( -0.0000000000000000000, 1.000000000000000000, -0.0000000000000000000 ) ) ;
#106 = VECTOR ( 'NONE', #162, 1000.000000000000000 ) ;
#107 = CARTESIAN_POINT ( 'NONE',  ( -12.69999999999998900, 12.69999999999998900, 1.000000000000000000 ) ) ;
#108 = APPROVAL_PERSON_ORGANIZATION ( #151, #207, #94 ) ;
#109 = CARTESIAN_POINT ( 'NONE',  ( -12.69999999999998900, 12.69999999999998900, 1.000000000000000000 ) ) ;
#110 = DIRECTION ( 'NONE',  ( 0.0000000000000000000, 0.0000000000000000000, 1.000000000000000000 ) ) ;
#111 = MANIFOLD_SOLID_BREP ( 'Boss-Extrude1', #145 ) ;
#112 = VECTOR ( 'NONE', #216, 1000.000000000000000 ) ;
#113 = APPROVAL ( #164, 'UNSPECIFIED' ) ;
#114 = COORDINATED_UNIVERSAL_TIME_OFFSET ( 5, 0, .BEHIND. ) ;
#115 = EDGE_CURVE ( 'NONE', #83, #136, #120, .T. ) ;
#116 = FACE_OUTER_BOUND ( 'NONE', #170, .T. ) ;
#117 = LOCAL_TIME ( 15, 50, 36.00000000000000000, #166 ) ;
#118 = VERTEX_POINT ( 'NONE', #64 ) ;
#119 = CARTESIAN_POINT ( 'NONE',  ( 12.70000000000001700, -12.69999999999997400, 0.0000000000000000000 ) ) ;
#120 = LINE ( 'NONE', #11, #72 ) ;
#121 = CARTESIAN_POINT ( 'NONE',  ( -12.69999999999998900, 12.69999999999998900, 1.000000000000000000 ) ) ;
#122 = ORIENTED_EDGE ( 'NONE', *, *, #202, .F. ) ;
#123 = SECURITY_CLASSIFICATION_LEVEL ( 'unclassified' ) ;
#124 = PLANE ( 'NONE',  #212 ) ;
#125 = EDGE_CURVE ( 'NONE', #103, #136, #169, .T. ) ;
#126 = ORIENTED_EDGE ( 'NONE', *, *, #101, .T. ) ;
#127 = DIRECTION ( 'NONE',  ( 1.000000000000000000, 0.0000000000000000000, 0.0000000000000000000 ) ) ;
#128 = CARTESIAN_POINT ( 'NONE',  ( -12.69999999999998900, 12.69999999999998900, 0.0000000000000000000 ) ) ;
#129 = DIRECTION ( 'NONE',  ( -0.0000000000000000000, 0.0000000000000000000, -1.000000000000000000 ) ) ;
#130 = MECHANICAL_CONTEXT ( 'NONE', #92, 'mechanical' ) ;
#131 = VECTOR ( 'NONE', #155, 1000.000000000000000 ) ;
#132 = ORIENTED_EDGE ( 'NONE', *, *, #135, .F. ) ;
#133 = VECTOR ( 'NONE', #182, 1000.000000000000000 ) ;
#134 = ORIENTED_EDGE ( 'NONE', *, *, #115, .T. ) ;
#135 = EDGE_CURVE ( 'NONE', #67, #103, #23, .T. ) ;
#136 = VERTEX_POINT ( 'NONE', #213 ) ;
#137 = LINE ( 'NONE', #161, #133 ) ;
#138 = CARTESIAN_POINT ( 'NONE',  ( -12.69999999999998900, -12.70000000000001700, 1.000000000000000000 ) ) ;
#139 = CARTESIAN_POINT ( 'NONE',  ( -12.69999999999998900, -12.70000000000001700, 0.0000000000000000000 ) ) ;
#140 = DATE_TIME_ROLE ( 'classification_date' ) ;
#141 = EDGE_LOOP ( 'NONE', ( #134, #171, #132, #228 ) ) ;
#142 = DIRECTION ( 'NONE',  ( -1.000000000000000000, 5.463695987328524500E-016, -0.0000000000000000000 ) ) ;
#143 = COORDINATED_UNIVERSAL_TIME_OFFSET ( 5, 0, .BEHIND. ) ;
#144 = APPLICATION_CONTEXT ( 'configuration controlled 3d designs of mechanical parts and assemblies' ) ;
#145 = CLOSED_SHELL ( 'NONE', ( #229, #222, #82, #183, #58, #150 ) ) ;
#146 = EDGE_CURVE ( 'NONE', #136, #193, #84, .T. ) ;
#147 = DATE_AND_TIME ( #197, #10 ) ;
#148 = COORDINATED_UNIVERSAL_TIME_OFFSET ( 5, 0, .BEHIND. ) ;
#149 = LINE ( 'NONE', #107, #106 ) ;
#150 = ADVANCED_FACE ( 'NONE', ( #63 ), #157, .F. ) ;
#151 = PERSON_AND_ORGANIZATION ( #96, #54 ) ;
#152 = CC_DESIGN_APPROVAL ( #113, ( #99 ) ) ;
#153 = PRODUCT_DEFINITION_SHAPE ( 'NONE', 'NONE',  #99 ) ;
#154 = DIRECTION ( 'NONE',  ( 1.000000000000000000, 1.639108796198557500E-015, 0.0000000000000000000 ) ) ;
#155 = DIRECTION ( 'NONE',  ( 1.000000000000000000, 1.639108796198557500E-015, 0.0000000000000000000 ) ) ;
#156 = LINE ( 'NONE', #16, #208 ) ;
#157 = PLANE ( 'NONE',  #187 ) ;
#158 = APPROVAL_ROLE ( '' ) ;
#159 = PERSON_AND_ORGANIZATION ( #96, #54 ) ;
#160 = EDGE_CURVE ( 'NONE', #103, #90, #156, .T. ) ;
#161 = CARTESIAN_POINT ( 'NONE',  ( -12.69999999999998900, -12.70000000000001700, 1.000000000000000000 ) ) ;
#162 = DIRECTION ( 'NONE',  ( 0.0000000000000000000, -1.000000000000000000, 0.0000000000000000000 ) ) ;
#163 =( NAMED_UNIT ( * ) PLANE_ANGLE_UNIT ( ) SI_UNIT ( $, .RADIAN. ) );
#164 = APPROVAL_STATUS ( 'not_yet_approved' ) ;
#165 = LINE ( 'NONE', #109, #112 ) ;
#166 = COORDINATED_UNIVERSAL_TIME_OFFSET ( 5, 0, .BEHIND. ) ;
#167 = EDGE_LOOP ( 'NONE', ( #97, #188, #69, #100 ) ) ;
#168 = CC_DESIGN_PERSON_AND_ORGANIZATION_ASSIGNMENT ( #159, #179, ( #99 ) ) ;
#169 = LINE ( 'NONE', #174, #211 ) ;
#170 = EDGE_LOOP ( 'NONE', ( #26, #224, #4, #33 ) ) ;
#171 = ORIENTED_EDGE ( 'NONE', *, *, #125, .F. ) ;
#172 = VECTOR ( 'NONE', #154, 1000.000000000000000 ) ;
#173 = DIRECTION ( 'NONE',  ( -0.0000000000000000000, -0.0000000000000000000, -1.000000000000000000 ) ) ;
#174 = CARTESIAN_POINT ( 'NONE',  ( 12.70000000000001700, 12.69999999999997400, 1.000000000000000000 ) ) ;
#175 = DIRECTION ( 'NONE',  ( -1.000000000000000000, 5.463695987328524500E-016, -0.0000000000000000000 ) ) ;
#176 = EDGE_LOOP ( 'NONE', ( #226, #126, #185, #184 ) ) ;
#177 = DIRECTION ( 'NONE',  ( 1.000000000000000000, 0.0000000000000000000, -0.0000000000000000000 ) ) ;
#178 = CC_DESIGN_DATE_AND_TIME_ASSIGNMENT ( #206, #71, ( #99 ) ) ;
#179 = PERSON_AND_ORGANIZATION_ROLE ( 'creator' ) ;
#180 = LINE ( 'NONE', #78, #172 ) ;
#181 = ADVANCED_BREP_SHAPE_REPRESENTATION ( 'Web Model 46097_48923', ( #111, #74 ), #12 ) ;
#182 = DIRECTION ( 'NONE',  ( -0.0000000000000000000, -0.0000000000000000000, -1.000000000000000000 ) ) ;
#183 = ADVANCED_FACE ( 'NONE', ( #116 ), #124, .F. ) ;
#184 = ORIENTED_EDGE ( 'NONE', *, *, #160, .T. ) ;
#185 = ORIENTED_EDGE ( 'NONE', *, *, #135, .T. ) ;
#186 = EDGE_CURVE ( 'NONE', #90, #193, #165, .T. ) ;
#187 = AXIS2_PLACEMENT_3D ( 'NONE', #196, #88, #215 ) ;
#188 = ORIENTED_EDGE ( 'NONE', *, *, #89, .F. ) ;
#189 = PERSON_AND_ORGANIZATION ( #96, #54 ) ;
#190 = PRODUCT_DEFINITION_FORMATION_WITH_SPECIFIED_SOURCE ( 'ANY', '', #73, .NOT_KNOWN. ) ;
#191 = DIRECTION ( 'NONE',  ( 0.0000000000000000000, 0.0000000000000000000, 1.000000000000000000 ) ) ;
#192 = DIRECTION ( 'NONE',  ( -0.0000000000000000000, 1.000000000000000000, -0.0000000000000000000 ) ) ;
#193 = VERTEX_POINT ( 'NONE', #128 ) ;
#194 = APPROVAL_DATE_TIME ( #8, #51 ) ;
#195 = SHAPE_DEFINITION_REPRESENTATION ( #153, #181 ) ;
#196 = CARTESIAN_POINT ( 'NONE',  ( 0.0000000000000000000, 0.0000000000000000000, 0.0000000000000000000 ) ) ;
#197 = CALENDAR_DATE ( 2017, 1, 3 ) ;
#198 = AXIS2_PLACEMENT_3D ( 'NONE', #76, #62, #127 ) ;
#199 = DIRECTION ( 'NONE',  ( -5.463695987328524500E-016, -1.000000000000000000, 0.0000000000000000000 ) ) ;
#200 = DIRECTION ( 'NONE',  ( -1.000000000000000000, -1.639108796198557500E-015, 0.0000000000000000000 ) ) ;
#201 = APPROVAL_STATUS ( 'not_yet_approved' ) ;
#202 = EDGE_CURVE ( 'NONE', #90, #118, #149, .T. ) ;
#203 = APPROVAL_PERSON_ORGANIZATION ( #13, #51, #158 ) ;
#204 = FACE_OUTER_BOUND ( 'NONE', #167, .T. ) ;
#205 = PLANE ( 'NONE',  #198 ) ;
#206 = DATE_AND_TIME ( #17, #57 ) ;
#207 = APPROVAL ( #201, 'UNSPECIFIED' ) ;
#208 = VECTOR ( 'NONE', #142, 1000.000000000000000 ) ;
#209 = APPROVAL_DATE_TIME ( #21, #113 ) ;
#210 = CARTESIAN_POINT ( 'NONE',  ( 12.70000000000001700, 12.69999999999997400, 1.000000000000000000 ) ) ;
#211 = VECTOR ( 'NONE', #232, 1000.000000000000000 ) ;
#212 = AXIS2_PLACEMENT_3D ( 'NONE', #46, #199, #91 ) ;
#213 = CARTESIAN_POINT ( 'NONE',  ( 12.70000000000001700, 12.69999999999997400, 0.0000000000000000000 ) ) ;
#214 = APPROVAL_PERSON_ORGANIZATION ( #25, #113, #52 ) ;
#215 = DIRECTION ( 'NONE',  ( 1.000000000000000000, 0.0000000000000000000, 0.0000000000000000000 ) ) ;
#216 = DIRECTION ( 'NONE',  ( -0.0000000000000000000, -0.0000000000000000000, -1.000000000000000000 ) ) ;
#217 = ORIENTED_EDGE ( 'NONE', *, *, #146, .F. ) ;
#218 = CARTESIAN_POINT ( 'NONE',  ( -12.69999999999998900, 12.69999999999998900, 1.000000000000000000 ) ) ;
#219 = CC_DESIGN_APPROVAL ( #207, ( #190 ) ) ;
#220 = CARTESIAN_POINT ( 'NONE',  ( 0.0000000000000000000, 0.0000000000000000000, 0.0000000000000000000 ) ) ;
#221 = PERSON_AND_ORGANIZATION_ROLE ( 'creator' ) ;
#222 = ADVANCED_FACE ( 'NONE', ( #204 ), #34, .F. ) ;
#223 = VECTOR ( 'NONE', #105, 1000.000000000000000 ) ;
#224 = ORIENTED_EDGE ( 'NONE', *, *, #186, .F. ) ;
#225 = AXIS2_PLACEMENT_3D ( 'NONE', #43, #61, #191 ) ;
#226 = ORIENTED_EDGE ( 'NONE', *, *, #202, .T. ) ;
#227 = LINE ( 'NONE', #85, #29 ) ;
#228 = ORIENTED_EDGE ( 'NONE', *, *, #89, .T. ) ;
#229 = ADVANCED_FACE ( 'NONE', ( #9 ), #237, .F. ) ;
#230 = CC_DESIGN_PERSON_AND_ORGANIZATION_ASSIGNMENT ( #49, #221, ( #190 ) ) ;
#231 = VECTOR ( 'NONE', #48, 1000.000000000000000 ) ;
#232 = DIRECTION ( 'NONE',  ( -0.0000000000000000000, -0.0000000000000000000, -1.000000000000000000 ) ) ;
#233 = PERSON_AND_ORGANIZATION_ROLE ( 'design_supplier' ) ;
#234 = EDGE_LOOP ( 'NONE', ( #86, #30, #122, #38 ) ) ;
#235 = CARTESIAN_POINT ( 'NONE',  ( -12.69999999999998900, -12.70000000000001700, 1.000000000000000000 ) ) ;
#236 = DATE_AND_TIME ( #42, #98 ) ;
#237 = PLANE ( 'NONE',  #24 ) ;
ENDSEC;
END-ISO-10303-21;
